Oops, an error
Loading. Please wait.

For Whom The Bell Tolls Tab

version 7
117,297 views 18 this week
45 commentsread comments
1 2 3 4 5
accurate
x 72
add to favorites
launch autoscroll
font size
0
reset
how to read this tab
guitar tuner
Tab Pro tools
  • play this tab
  • loop segment
  • change instrument
  • show fretboard
  • metronome
×
Best way to learn
"For Whom The Bell Tolls"
Autoscroll
slow
fast
+/-
esc
set tempo
stop
Contributor
-------------------------------------------------------------------------------
                             For Whom The Bells Tolls - Metallica
-------------------------------------------------------------------------------
Tabbed by Lirikal       
Email lirikal2000@hotmail.com

Tuning: E A D G B e

| /  slide up
| \  slide down
| h  hammer-on
| p  pull-off
| ~  vibrato
| +  harmonic
| x  Mute note


INTRO:

Guitar 1&2:

    F#5       E5                              f#5       E5 x8
e:---------------|----------------------------------------------|
B:---------------|----------------------------------------------|
G:---------------|*--------------------------------------------*|
D:---------------|*--------------------------------------------*|
A:--4-4--4-4--2--|--------------------------------4-4--4-4--2---|
E:--2-2--2-2--0--|--------------------------------2-2--2-2--0---|
                                                                |
Bass:                                                           |
                                                                |
G:---------------|*--19--18-17-16--16-------19------------------|
D:---------------|*-------------------17-16--------------------*|
A:---------------|-----------------------------17-16~----------*|
E:---------------|----------------------------------------------|


       E5 G5 F#5F5 E5 G5 F#5F5 E5 G5 F#5F5 E5 F#5G5 A5
e:-|---------------------------------------------------|
B:-|---------------------------------------------------|
G:-|*--------------------------------------------------|
D:-|*-----------------------------------------------2--|
A:-|---2--5--4--3--2--5--4--3--2--5--4--3--2--4--5--0--|
E:-|---0--3--2--1--0--3--2--1--0--3--2--1--0--2--3-----|


    E5 G5 F#5F5 E5 G5 F#5F5 E5 G5 F#5F5 E5 G5 F#5B5  x2
e:-----------------------------------------------------|-------------|
B:-----------------------------------------------------|-------------|
G:----------------------------------------------------*|-------------|
D:-----------------------------------------------4----*|-2-----------|
A:--2--5--4--3--2--5--4--3--2--5--4--3--2--5--4--2-----|-2-----------|
E:--0--3--2--1--0--3--2--1--0--3--2--1--0--3--2--------|-0-----------|


       E5       G5                 E5      G5   C5   A5 x2
e:-|------------------------------------------------------|
B:-|------------------------------------------------------|
G:-|*----------------------------------------------------*|
D:-|*-------------------------------------------5----2---*|
A:-|---2--------5-------5----------2-------5----3----0----|
E:-|---0--------3-------3----------0-------3--------------|
                                                          |
                                                      x16 |
e:-|------------------------------------------------------|
B:-|------------------------------------------------------|
G:-|*--12--9--11------9--11--12--9--11------9--11--------*|
D:-|*-------------12--------------------12---------------*|
A:-|------------------------------------------------------|
E:-|------------------------------------------------------|


            G5       A5       G5 Bb5F#5     G5       A5       G5   Bb5F#5F5 x2
e:-|-------------------------------------------------------------------------|
B:-|-------------------------------------------------------------------------|
G:-|*-----------------------------------------------------------------------*|
D:-|*----------------------------3----------------------------------3-------*|
A:-|--------5--------7--------5--1-4--------5--------7--------5-----1-4-3----|
E:-|--0-0-0-3--0-0-0-5--0-0-0-3----2--0-0-0-3--0-0-0-5--0-0-0-3-0-0---2-1----|


VERSE:


       E5       G5                 E5      G5   C5   A5 x2
e:-|------------------------------------------------------|
B:-|------------------------------------------------------|
G:-|*----------------------------------------------------*|
D:-|*-------------------------------------------5----2---*|
A:-|---2--------5-------5----------2-------5----3----0----|
E:-|---0--------3-------3----------0-------3--------------|


CHORUS:


            G5       A5       G5 Bb5F#5     G5       A5       G5   Bb5F#5F5 x2
e:-|-------------------------------------------------------------------------|
B:-|-------------------------------------------------------------------------|
G:-|*-----------------------------------------------------------------------*|
D:-|*----------------------------3----------------------------------3-------*|
A:-|--------5--------7--------5--1-4--------5--------7--------5-----1-4-3----|
E:-|--0-0-0-3--0-0-0-5--0-0-0-3----2--0-0-0-3--0-0-0-5--0-0-0-3-0-0---2-1----|


INTERLUDE:

e:-|-------------------------------------------------|
B:-|-------------------------------------------------|
G:-|*-12--9--11------9-------------------------------|
D:-|*------------12-----11--12--9--11------9---------|
A:-|-----------------------------------12-----10-----|
E:-|-------------------------------------------------|
                                                     |
      E5                                          E5 |
e:-|-------------------------------------------------|
B:-|-------------------------------------------------|
G:-|*------------------------------------------------|
D:-|*------------------------------------------------|
A:-|--2-------------------------------------------2--|
E:-|--0-------------------------------------------0--|



e:-----------------------------------------------------------------|
B:-----------------------------------------------------------------|
G:--12--9--11------9-----------------------------------------------|
D:-------------12-----11--12--9--11------9-------------------------|
A:-----------------------------------12-----10---------------------|
E:-----------------------------------------------------------------|
                                                                   |
    E5                                          G5                 |
e:-----------------------------------------------------------------|
B:-----------------------------------------------------------------|
G:-----------------------------------------------------------------|
D:-----------------------------------------------------------------|
A:--2-------------------------------------------5--5-5-5-5--5-5-5--|
E:--0-------------------------------------------3--3-3-3-3--3-3-3--|

                                                  x2
e:--------------------------------------------------|
B:--------------------------------------------------|
G:--12--9--11------9-------------------------------*|
D:-------------12-----11--12--9--11------9---------*|
A:-----------------------------------12-----10------|
E:--------------------------------------------------|
                                                    |
    E5                                          B5  |
e:--------------------------------------------------|
B:--------------------------------------------------|
G:-------------------------------------------------*|
D:----------------------------------------------4--*|
A:--2-------------------------------------------2---|
E:--0-----------------------------------------------|

OUTRO:

       E5     F#5          E5     F#5        G5      x11(and fade out)
e:-|-----------------------------------------------------|
B:-|-----------------------------------------------------|
G:-|*---------------------------------------------------*|
D:-|*--9------11---11------9-------11---11----12----12--*|
A:-|---7------9----9-------7-------9----9-----10----10---|
E:-|-----------------------------------------------------|

ENJOY IT!!
===============================================================================
comments
print report bad tab
45 comments total. Showing first comments. show 1 bad comment
0 reply
Lirikal wrote on December 2 2003, 12:00 am

Comemela polla theego seguro q no sabes tocar un puta mierda con dedos de esmirriao

0 reply
EpitaphMan440 wrote on December 11 2003, 12:00 am

It's a pretty damn good tab, easy on the name calling lol

I want to post or [tab]
guest
You may want to rate the tab now too:
select rating
Please do not post tabs as comments. Select "correction" instead!