Oops, an error
Loading. Please wait.

Frantic Bass Tab

version 1
version 1
9,464 views 3 this week
2 commentsread comments
1 2 3 4 5
x 4
add to favorites
launch autoscroll
font size
0
reset
guitar tuner
Autoscroll
slow
fast
+/-
esc
set tempo
stop
Help us to improve Ultimate-Guitar.com Take our survey!
×
Song:Frantic
Artist:Metallica
Album:St. Anger
Tabber:RobertRomanos


Intro 1                                      x4
G|----------------------------------------
D|----------------------------------------
A|---------------5------------------5-----
E|-0-0-0-0-0-0-0------0-0-0-0-0-0-0-------

Intro 2                                      x3
G|----------------------------------------
D|----------------------------------------
A|----------------------------------------
E|-6-3-0-0-0-0-5-0-0-0-0-0-6-3-0-0-0-0-5--

Faster                                       x2
G|-----------------------------------------
D|-----------------------------------------
A|-----------------------------------------
E|-63-0000-5-63-0000-5-63-0000-5-63-0000-5-

Pre-Pre Verse                              x3
G|--------------------------------------
D|--------------------------------------
A|-12-10-0-11-11-11---12-10-0-11-11-11--
E|--------------------------------------

G|--------------------------------------
D|--------------------------------------
A|-12-10-0-11-11-11--12-10-0-0-0-0-0-0--
E|--------------------------------------

Pre Verse                                   x2     
G|---------------------------------------------------
D|---------------------------------------------------
A|---------------------------------------------------
E|-63-0-5-5-5--63-0-5-5-5--63-0-5-5-5--63-0000000----

Verse                                       x2
G|------------------------------------------------
D|------------------------------------------------
A|------------------------------------------------
E|--6-0-0-0-0-0-3-0-0-0-0-0-6-0-0-0-0-0-3-0-0-0-0-

Mid-Verse
G|-------------------------------------
D|-------------------------------------
A|-------------------------------------
E|-5555555-6666666-5555555-6666666-----

Verse x1

After Verse                         x3
G|--------------------------------------
D|--------------------------------------
A|-12-10-0-11-11-11---12-10-0-11-11-11--
E|--------------------------------------

Chorus
G|---------------------------------------------------
D|---------------------------------------------------
A|---------------------------------------------------
E|-0-0-0-0-0-0--0-0-0-0-0-0--0-0-0-0-0-0--0-0-0-0-0-0

After Chorus             x16
G|---------------------   
D|--------------------- 
A|--------3--3---------    
E|--4--2--------4------    

Frantic Tic Tic Tic Tic Toc            x4
G|----------------------------------------
D|----------------------------------------
A|----------------------------------------
E|-6-3-0-0-0-0-5-0-0-0-0-0-6-3-0-0-0-0-5--


Pre-Pre Verse  x2
Verse x2
Mid-Verse x1
Verse x1
After Verse x3
Chorus
After Chorus x16
Frantic tic tic tic toc x4
Faster x6
Chorus x2 
After Chorus x16
Frantic tic tic tic toc X4

Break
G|----------------------------------------
D|----------------------------------------
A|----------------------------------------
E|--00---00---00---00---00---00---00---00-

Ending                     x3
G|----------------------------------------
D|----------------------------------------
A|----------------------------------------
E|-63-5555-63-5555-63-5555-63-5555-63-5555
Suggest correction
comments
print report bad tab
2 comments total.
0 reply
pluckin crazy 10 Apr 03, 2004 12:00 AM

which is the part of the song that when it says "keep searching"
I think its sommething like this
G|--12--9--11----12--9--11---7-5-4-3-
D|-----------------------------------
A|-----------------------------------
E|-----------------------------------

0 reply
Timmyakatimbo 10 Dec 31, 2011 09:33 PM

You dont have the very beginin lol im listenin to the bass trackn now could ya tab that
http://www.youtube.com/watch?v=iZdfByqjDS0&feature=related

guest
You may want to rate the tab now too:
select rating
Wanna post a correction for this tab? Suggest correction