Oops, an error
Loading. Please wait.

Frantic Tab

version 6
11,833 views 15 this week
2 commentsread comments
1 2 3 4 5
worth learning
x 5
add to favorites
launch autoscroll
font size
0
reset
how to read this tab
guitar tuner
Autoscroll
slow
fast
+/-
esc
set tempo
stop
Help us to improve Ultimate-Guitar.com Take our survey!
×
Author
Band: Metallica
Album: St. Anger
Song: Frantic
Tuning: (Low to high) CGCFAD

Intro:
F|-----------------------------------------|
A|-----------------------------------------|
D|-----------------------------------------|
C|-----------------------------------------|
G|-----------------------------------------|
C|--0-0-0-0-0-0-0-0-0---0-0-0-0-0-0-0-0-0--|
PM  ...............     ...............

D|---------------------------------------------------|
A|---------------------------------------------------|
F|---------------------------------------------------|
C|---------------------------------------------------|
G|---------------------------------------------------|
C|--18-15-0-0-0-0-17--0-0-0-0-0-0--18-15-0-0-0-0-17--|
PM        .......     ...........        .......

W/ Clean Tone, Gtr 1
D|---------------------------------------------------------------------------------------|
A|---------------------------------------------------------------------------------------|
F|---------------------------------------------------------------------------------------|
C|---------------------------------------------------------------------------------------|
G|---------------------------------------------------------------------------------------|
C|--18-15-0-17~~-17~~-17--18-15-0-17~~-17~~-17--18-15-0-17~~-17~~-17--18 15-0-0-0-0-0-0--|
PM                                                                          ...........

Gtrs 1 & 2 W/ Distortion
D|---------------------------------------------------------------------------------------|
A|---------------------------------------------------------------------------------------|
F|---------------------------------------------------------------------------------------|
C|---------------------------------------------------------------------------------------|
G|---------------------------------------------------------------------------------------|
C|--18-15-0-17~~-17~~-17--18-15-0-17~~-17~~-17--18-15-0-17~~-17~~-17--18 15-0-0-0-0-0-0--|
PM                                                                          ...........

Verse: Gtrs 1 & 2 W/ Distortion
D|---------------------------------------------------------------------|
A|---------------------------------------------------------------------|
F|---------------------------------------------------------------------|
C|---------------------------------------------------------------------|
G|--6\3--------------6\3--------------6\3-------------6\3--------------|
C|--6\3-0-0-0-0-0-0--6\3-0-0-0-0-0-0--6\3-0-0-0-0-0-0-6\3-0-0-0-0-0-0--|
PM      ...........      ...........      ...........     ........... 
If I could have my wasted days back...

D|-----------------------------------------------------------------------------|
A|-----------------------------------------------------------------------------|
F|-----------------------------------------------------------------------------|
C|-----------------------------------------------------------------------------|
G|--6-6-6--5-5-5-5-5---6-6-6--5-5-5-5-5---6-6-6--5-5-5-5-5---6-6-6--3-3-3-3/5--|
C|--6-6-6--5-5-5-5-5---6-6-6--5-5-5-5-5---6-6-6--5-5-5-5-5---6-6-6--3-3-3-3/5--|
PM  .....  .........   .....  .........   .....  .........   .....
Do I have the strength to know how I'll go...

Gtr 1 W/ Clean Tone
D|-------------------------------------------|
A|-------------------------------------------|
F|-------------------------------------------|
C|-------------------------------------------|
G|-------------------------------------------|
C|--18-15-0-17~~-17~~-17--18-15-0-17~~-17~~--|

W/ Distortion
D|-------------------------------------------|
A|-------------------------------------------|
F|-------------------------------------------|
C|-------------------------------------------|
G|-------------------------------------------|
C|--18-15-0-17~~-17~~-17--18-15-0-17~~-17~~--|
You live it or lie it, you live it or lie it!

Gtr 2 W/ Clean Tone 
D|-------------------------------------------|
A|-------------------------------------------|
F|-------------------------------------------|
C|-------------------------------------------|
G|-------------------------------------------|
C|--18-15-0-17~~-17~~-17--18-15-0-17~~-17~~--|
(You live it or lie it, You live it or lie it!)

D|----------------------------------------------------------------------|
A|----------------------------------------------------------------------|
F|----------------------------------------------------------------------|
C|----------------------------------------------------------------------|
G|----------------------------------------------------------------------|
C|--0-0-0-0-0-0-0-0--0-0-0-0-0-0-0-0--0-0-0-0-0-0-0-0--0-0-0-0-0-0-0-0--|
PM  ...............  ...............  ...............  ...............
My lifestyle determines my death style...


Pre Chorus, Gtr 1 W/ Clean Tone
D|--------------------------------------------------------------|
A|------0----0---------0----0---------0----0---------0----0-----|
F|----0----0----0----0----0----0----0----0----0----0----0----0--|
C|--6----3----5----6----3----5----6----3----5----6----3----5----|
G|--------------------------------------------------------------|
C|--------------------------------------------------------------|
Keep searchin', This search goes on...

Gtr 2 W/ Clean Tone
D|-------------------------------------------|
A|-------------------------------------------|
F|--13----10----12~~~-----13----10----12~~~--|
C|-------------------------------------------|
G|-------------------------------------------|
C|-------------------------------------------|

D|---------------------------------------------|
A|---------------------------------------------|
F|---------------------------------------------|
C|--12---10---9\(5)~~~-(5)/12---10---9/(5)~~~--|
G|---------------------------------------------|
C|---------------------------------------------|


Chorus: Gtrs 1 & 2 W/ Distortion
D|----------------------------------------------------------------------------------|
A|----------------------------------------------------------------------------------|
F|----------------------------------------------------------------------------------|
C|----------------------------------------------------------------------------------|
G|----------------------------------------------------------------------------------|
C|--18-18-15-17--0-0-0--18-18-15-17--0-0-0--18-18-15-17--0-0-0--18-18-15-17--17/12--|
PM               .....               .....               .....
Frantic tick, tick, tick, tick, tock... 

Interlude: Gtrs 1 & 2 W/ Distortion
D|--------------------------------------------------------|
A|--------------------------------------------------------|
F|--------------------------------------------------------|
C|--6p0--3p0---------5p0-------------6p0-3p0---------5p0--|
G|--------------------------------------------------------|
C|-----------0-0-0-0-----0-0-0-0-0-0---------0-0-0-0------|
PM           .......     ...........         .......

Bridge: Gtr 1 W/ Distortion
D|-------------------------------------------------------------------|
A|-------------------------------------------------------------------|
F|-------------------------------------------------------------------|
C|--18p0-17p0--0-0-0-0--17p0--0-0-0-0-0-0--18p0-17p0--0-0-0-0--17p0--|
G|-------------------------------------------------------------------|
C|-------------------------------------------------------------------|
Do I have the strength to know how I'll go...

Gtrs 1 & 2 W/ Distortion
D|----------------------------------------|
A|----------------------------------------|
F|----------------------------------------|
C|----------------------------------------|
G|----------------------------------------|
C|--0-0-0-0-0-0-0-0-0--0-0-0-0-0-0-0-0-0--|
My lifestyle   determines...
D|----------------------------------------------------------|
A|----------------------------------------------------------|
F|----------------------------------------------------------|
C|----------------------------------------------------------|
G|----------------------------------------------------------|
C|--0-0-0-0-0-0-0-0-0--0-0-0-0-0-0-0-0-0-3-3-3-3-3-3-3-3-3--|
My deathstlye,  A rising tide  That pushes to the other side

Next Riff is played by 3 Gtrs W/ Distortion
D|------------------------------------------------------------|
A|------------------------------------------------------------|
F|------------------------------------------------------------|
C|------------------------------------------------------------|
G|------------------------------------------------------------|
C|--0--12-12---12-12p10--12~12~--0--12-12---12-12p10--12~12~--|

D|--------------------------------------|
A|--------------------------------------|
F|--------------------------------------|
C|--------------------------------------|
G|-------------------------------10-----|
C|--0--12-12---12-12p10-12p0--12----12--|

D|---------------------------------------------------------------|
A|---------------------------------------------------------------|
F|---------------------------------------------------------------|
C|---------------------------------------------------------------|
G|---------------------------------------------------------------|
C|--0--12-12---12-12p10--12~12~--0--12-12---12-12p10--12~12~--0--|


| /  slide up
| \  slide down
| h  hammer-on
| p  pull-off
| ~  vibrato
| +  harmonic
| x  Mute note
=============================================================================
Suggest correction
What's this?
You can suggest a correction to this tab. Community and Mods will review your correction and vote to approve or reject it.
comments
print report bad tab
2 comments total.
0 reply
Mr_'Tallica 13 wrote on November 8 2004, 12:00 am

Not bad.

0 reply
Kiss_Fan666 72 wrote on May 10 2010, 12:16 am

Please do this:
1 2 3e&a4
|------------|
|-----45423|
|-----45423|

guest
You may want to rate the tab now too:
select rating
Please do not post tabs as comments. Select "correction" instead!