Oops, an error
Loading. Please wait.

Fuel Tab

version 1
version 1

Whole song

270,090 views 198 this week
13 commentsread comments
1 2 3 4 5
x 34
add to favorites
launch autoscroll
font size
0
reset
how to read this tab
guitar tuner
Autoscroll
slow
fast
+/-
esc
set tempo
stop
Help us to improve Ultimate-Guitar.com Take our survey!
×
[Intro]


Gimme fuel
Gimme fire
Gimme that which I desire



 Riff 1
e|-----------------|
B|-----------------|
G|-----------------|   
D|-----------------|
A|-----------------|
E|-3-0-0-3-0-0-3-0-| 5 times

 End Riff 1
e|-----------------|
B|-----------------|
G|-----------------|
D|-7-7-7-7-7-5---5-|
A|-7-7-7-7-7-5-7-5-|
E|-------------7---|

 Riff 1
e|-----------------|
B|-----------------|
G|-----------------|   
D|-----------------|
A|-----------------|
E|-3-0-0-3-0-0-3-0-| 3 times

 Riff 2.1
e|-------------------------------|
B|-------------------------------|
G|-------------------------------|
D|-7-7-7-5~-------7-7-7-5~-------|
A|----------7-5h7--------- 7-5h7-|
E|-------------------------------| 2 times

 Riff 1
e|-----------------|
B|-----------------|
G|-----------------|   
D|-----------------|
A|-----------------|
E|-3-0-0-3-0-0-3-0-| 2 times


[Verse]
E5            G5
Turn on I see red 

 Riff 2.2
e|---------------------------------------------|
B|-14-14-14--------------14-14-14--------------|
G|-14-14-14-12~----------14-14-14-12~----------|
D|--------------14-12h14--------------14-12h14-|
A|---------------------------------------------|
E|---------------------------------------------|

E5                   B5            Bb5          A5
Adrenaline crash and crank my head nitro junkie paint me dead

 Riff 2.1
e|-------------------------------|
B|-------------------------------|
G|-------------------------------|
D|-7-7-7-5~-------7-7-7-5~-------|
A|----------7-5h7--------- 7-5h7-|
E|-------------------------------|

 Riff 1
e|-----------------|
B|-----------------|
G|-----------------|   
D|-----------------|
A|-----------------|
E|-3-0-0-3-0-0-3-0-| 2 times

E5                      G5
Running acrsoss through black and white

 Riff 2.2
e|---------------------------------------------|
B|-14-14-14--------------14-14-14--------------|
G|-14-14-14-12~----------14-14-14-12~----------|
D|--------------14-12h14--------------14-12h14-|
A|---------------------------------------------|
E|---------------------------------------------|

E5        B5       Bb5         A5 
War horse war head fuck'em man white knuckle tight

 Riff 2.1
e|-------------------------------|
B|-------------------------------|
G|-------------------------------|
D|-7-7-7-5~-------7-7-7-5~-------|
A|----------7-5h7--------- 7-5h7-|
E|-------------------------------|

E5 rings into chorus


[Chorus]

e|-----------------------|
B|-----------------------|
G|-----------------------|
D|-----------------------| 4 times
A|-5-5h7-7-7~-5-5h7-7-7~-|
E|-----------------------|

e|-----------------------|
B|-----------------------|
G|-----------------------|
D|-5-5p2-2-2~-5-5p2-2-2~-| 3 times
A|-----------------------|
E|-----------------------|

e|-----------------------|
B|-----------------------|
G|-----------------------|
D|-7-7p4-4-4~-7-7p4-4-4~-|
A|-----------------------|
E|-----------------------|


 Riff 1
e|-----------------|
B|-----------------|
G|-----------------|   
D|-----------------|
A|-----------------|
E|-3-0-0-3-0-0-3-0-| 2 times
E5

Repeat all of the above once and then


[Bridge]

e|------------------------------------|
B|------------------------------------|
G|------------------------------------|
D|-7-7-7-5-5----pm---7-7-7-5-5--pm--5-|  4 times
A|-7-7-7-5-5-2-2-2-2-7-7-7-5-5-2-2-/5-|
E|-----------0-0-0-0-----------0-0----|

e|---------------------------------------|
B|---------------------------------------|
G|---------------------------------------|
D|-7-7-7-5-------5-------7-7-7-5-------5-| 4 times
A|-7-7-7-5-7-5h7-5-2-2-2-7-7-7-5-7-5h7-5-|
E|---------7-5h7---0-0-0---------7-5h7---|

e|-----------------------------------------------------|
B|-14-14-14-12----------12----14-14-14-12----------12--|
G|-14-14-14-12----------12----14-14-14-12----------12~-|
D|-------------14-12h14----14-------------14-12h14-----| 4 times
A|-----------------------------------------------------|
E|-----------------------------------------------------|

 Riff 2.1
e|-------------------------------|
B|-------------------------------|
G|-------------------------------|
D|-7-7-7-5~-------7-7-7-5~-------|
A|----------7-5h7--------- 7-5h7-|
E|-------------------------------|
                                                     x2
 Riff 2.2
e|---------------------------------------------|
B|-14-14-14--------------14-14-14--------------|
G|-14-14-14-12~----------14-14-14-12~----------|
D|--------------14-12h14--------------14-12h14-|
A|---------------------------------------------|
E|---------------------------------------------| 


[Solo]


(Lead)

e|--------------------12-----12---------------15^--15p14-15p14------------|
B|--15^(full)-15^~~~-----15^----15^--------12-----------------15----------|
G|--------------------------------------------------------------14-12\11--|
D|------------------------------------------------------------------------|
A|------------------------------------------------------------------------|
E|------------------------------------------------------------------------|

e|------------------------------------------------------------------------|
B|----------------------------------15--15p14---14-------14-15-17---------|
G|--------------------12---12-14/16----------16----14h16------------------|
D|-12---12-12-12/14-----14------------------------------------------------|
A|------------------------------------------------------------------------|
E|------------------------------------------------------------------------|

e|------14--15---17--17^----17--15---------------7/9--7---7/9--7\---------|
B|-17-------------------------------17--17~~\-----------------------------|
G|-----------------------------------------------7/9--7---7/9--7\---------|
D|------------------------------------------------------------------------|
A|------------------------------------------------------------------------|
E|------------------------------------------------------------------------|

e|-----------------------------------7/9--7----7/9--7---9--12-12/16---|
B|--------------------------------------------------------------------|
G|--2^----2^----2^----2^p0-----------7/9--7----7/9--7---9--12-12/16---|
D|--------------------------2--0--2/----------------------------------|
A|--------------------------------------------------------------------|
E|--------------------------------------------------------------------|
 Pre-bend full all

e|-16~~~--16\-----------0-----0----------0------0----------0------0------|
B|-----------------------3-3^---3p0-------3-3^-----3p0-------3-3^---3p0--|
G|-16~~~--16\-------2^---------------2^-----------------2^---------------|
D|-----------------------------------------------------------------------|
A|-----------------------------------------------------------------------|
E|-----------------------------------------------------------------------|

e|--3-0---0--0---0----------------|
B|------3----3---3----------------|
G|--------------------2^^p0-------|
D|--------------------------------|
A|--------------------------------|
E|---------------------------0----|


(Rhythm)

 Riff 1
e|-----------------|
B|-----------------|
G|-----------------|   
D|-----------------|
A|-----------------|
E|-3-0-0-3-0-0-3-0-| 8 times

e|-----------------------------------------------------|
B|-----------------------------------------------------|
G|-----------------------------------------------------|
D|-7-7-5--7-7-5--7-7-5--7-7-5--7-7-5--7-7-5------------|
A|-7-7-5--7-7-5--7-7-5--7-7-5--7-7-5--7-7-5-2--5-4-3-2-|
E|------------------------------------------0--3-2-1-0-|


play the chorus twice

 Riff 1
e|-----------------|
B|-----------------|
G|-----------------|   
D|-----------------|
A|-----------------|
E|-3-0-0-3-0-0-3-0-| 2 times

E5

 Riff 1
e|-----------------|
B|-----------------|
G|-----------------|   
D|-----------------|
A|-----------------|
E|-3-0-0-3-0-0-3-0-| 3 times

 End Riff 1
e|-----------------|
B|-----------------|
G|-----------------|
D|-7-7-7-7-7-5---5-|
A|-7-7-7-7-7-5-7-5-|
E|-------------7---|

 Riff 2.1
e|-------------------------------|
B|-------------------------------|
G|-------------------------------|
D|-7-7-7-5~-------7-7-7-5~-------|
A|----------7-5h7--------- 7-5h7-|
E|-------------------------------| 2 times

E5

Lyrics:

Gimme fuel
Gimme fire
Gimme that which I desire
Oh

Yeah
Turn on, I see red
Adrenaline crash and crack my head
Nitro junkie, paint me dead
And I see red

Running across through black and white
War horse
War head
Fuck 'em, man
White knuckle tight
Through black and white

Oh, I burn
Fuel is pumping engines
Burning hard
Loose and clean

Oh, and I burn
Turning my direction
Quench my thirst with gasoline

So gimme fuel
Gimme fire
Gimme that which I desire

Hey

Turn on beyond the bone
Swallow future, spit out hope
Burn your face upon the chrome

Yeah, oh yeah

Take the corner, going to crash
Headlights
Headlines
Another junkie, who lives too fast

Yeah
Lives way too fast, fast, fast, fast, fast, fast
Oh

Oh, I burn
Fuel is pumping engines
Burning hard
Loose and clean

Oh, and I burn
Turning my direction
Quench my thirst with gasoline

So gimme fuel
Gimme fire
Gimme that which I desire
Oh yeah

(James mumbles something)

Oh
Gimme fuel
Gimme fire
My desire

Oh, I burn
Fuel is pumping engines
Burning hard
Loose and clean

And I burn
Turning my direction
Quench my thirst with gasoline

Gimme fuel
Gimme fire
Gimme that which I desire
Oh

On I burn

That is it.



************************************

| x  Dead note
| h  Hammer-on
| p  Pull-off
| /  Slide up
| \  Slide down
| ~  Vibrato
| ^  Bend

************************************
Suggest correction
comments
print report bad tab
13 comments total. Showing first comments.
-2 reply
ShredHed69 10 Mar 06, 2002 12:00 AM

Awesome tab man, pretty much most of it. Good job

-2 reply
Riveria13 35 Mar 31, 2002 12:00 AM

Awesome tab. Listen to the song for the intro

-2 reply
rageagianstme 10 Apr 23, 2002 12:00 AM

Great tab! I dont know what the whole unforgiven thing is, but thats ok. Did you get this from a magizine?

guest
You may want to rate the tab now too:
select rating
Wanna post a correction for this tab? Suggest correction