Oops, an error
Loading. Please wait.

God Of Thunder Bass Tab

2,283 views 1 this week
6 commentsread comments
1 2 3 4 5
please rate
add to favorites
launch autoscroll
font size
0
reset
guitar tuner
Autoscroll
slow
fast
+/-
esc
set tempo
stop
Help us to improve Ultimate-Guitar.com Take our survey!
×
Metallica
God of Thunder
written by Kiss
as performed at Castle Donnington 8/7/95 
tab by Phil Boyle; phil@encycmet.com


This was a cool little piece that Jason played before the intro to
For Whom the Bell Tolls.  This was actually the guitar riff for the
song, but here James and Kirk only played a scratch fill.

tune all guitars down 1/2 step
Gb-------------------------------------------------------
Db---------------------------5--------------5---5-7-8-7-5
Ab------7---5-7------7---5-7--------7---5-7---7----------
Eb--0-0---7------0-0---7--------0-0---7------------------



 
Suggest correction
Give kudos to tab author, rate the tab!
1 2 3 4 5
comments
print report bad tab
6 comments total. Showing first comments.
0 reply
kissjohan 10 wrote on April 5 2004, 12:00 am

this is KISS song, GOD OF THUNDER!!!!

0 reply
metallica_1981 10 wrote on March 9 2005, 12:00 am

Gb---------------------------------------------------------
Db---------------------------5----------------5-5-7-7p0-5-7
Ab-----7---5-5h7-----7---5-7--------7---5-5h7--7-----------
Eb-0-0---7-------0-0---7--------0-0---7--------------------

0 reply
metallica_1981 10 wrote on March 9 2005, 12:00 am

yeah i think thats how it goes, i could be wrong but im pretty sure

guest
You may want to rate the tab now too:
select rating
Wanna post a correction for this tab? Suggest correction