Oops, an error
Loading. Please wait.

Hardwired Bass Tab

version 1
version 1

Whole song

  • Maybe the rythm is not that correct but i think yo... Show more
2,749 views 228 this week
3 commentsread comments
1 2 3 4 5
x 10
add to favorites
launch autoscroll
font size
0
reset
guitar tuner
Autoscroll
slow
fast
+/-
esc
set tempo
stop
Help us to improve Ultimate-Guitar.com Take our survey!
×
Author
Tuning
E A D G B E
About this tab version
Maybe the rythm is not that correct but i think you can get a mind of the songs bass play. Was this info helpful? Yes No
Song: Hardwired (...to selfdestruct)
Albuim: Hardwied

Bandmembers: James Hetfield, Kirk Hammet, Lars Ulich, Robert Trujillo

Intro

|--------------------------------| 2x
|--------------------------------|
|--------------------------------|
|0-0-0-0-0-0-0-0-0-0-0-0-0-0-0-0-|

|--------------------------------| 2x
|--------------------------------|
|--------------------------------|
|0-0-0-0-76-0-0-0-0-0-0-0-0-0-0-0|

|---------------------------------| 2x
|---------------------------------|
|---------------------------------|
|0-0-0-0-76-0-0-65-0-0-0-0-0-0-0-0|

|---------------------------------| 2x
|---------------------------------|
|---------------------------------|
|0-0-0-0-76~----65-0-0-0-0-0-0-0-0|

|---------------------------------|
|---------------------------------|
|---------------------------------|
|0-0-0-0-76~-65~----76~----65~----|


|------------|
|------------|
|------------|
|0~-----76---|

|------------------------------| 4x
|------------------------------|
|------------------------------|
|0-0-0-76-0-0-65-0-3-5-6-5-3-5-|

|--------|
|--------|
|--------|
|5-5-5-5-|


Verse 1:

|---------------------------------| 3x
|---------------------------------|
|---------------------------------|
|0-0-0-0-76-0-0-65-0-0-0-0-0-0-0-0|

|------------------------------|
|------------------------------|
|------------------------------|
|0-0-0-76-0-0-65-0-3-5-6-5-3-5-|

Chorus 1:

|--------------------------------| 2x
|--------------------------------|
|--------------------------------|
|5-5-5-5-5-5-5-5-6-6-6-6-1-1-1-1-|

|-------------------------|
|-------------------------|
|-------------------------|
|5-5-5-5-5-5-5-5-1---1--3-|

Intermediate Part 1:

|-------------------------|
|-------------------------|
|-------------------------|
|0-0-0-0-0-0-0-0-0~----76-|

|------------------------------| 4x
|------------------------------|
|------------------------------|
|0-0-0-76-0-0-65-0-3-5-6-5-3-5-|

|--------|
|--------|
|--------|
|5-5-5-5-|

Verse 2:

|---------------------------------| 3x
|---------------------------------|
|---------------------------------|
|0-0-0-0-76-0-0-65-0-0-0-0-0-0-0-0|

|------------------------------|
|------------------------------|
|------------------------------|
|0-0-0-76-0-0-65-0-3-5-6-5-3-5-|

Chorus 2:

|--------------------------------| 2x
|--------------------------------|
|--------------------------------|
|5-5-5-5-5-5-5-5-6-6-6-6-1-1-1-1-|

|-------------------------|
|-------------------------|
|-------------------------|
|5-5-5-5-5-5-5-5-1---1--3-|

Intermediate Part 2:

|-------------------------|
|-------------------------|
|-------------------------|
|0-0-0-0-0-0-0-0-0~----76-|

Guitar Solo

|--------------| 7x
|--------------|
|--------------|
|0-------------|

|--------------|
|--------------|
|--------------|
|0-----7-6-5---|

|--------------------------------| 7x
|--------------------------------|
|--------------------------------|
|0-0-0-0-0-0-0-0-0-0-0-0-0-0-0-0-|

|--------------|
|--------------|
|--------------|
|0-----7-6-5---|

|--------------------------------| 4x
|--------------------------------|
|--------------------------------|
|0-0-0-0-0-0-0-0-0-0-3-5-6-5-3-5-|


|--------------------------------| 8x
|--------------------------------|
|--------------------------------|
|0-0-0-0-0-0-0-0-0-0-0-0-0-0-0-0-|

Verse 3:

|--------------------------------| 4x
|--------------------------------|
|--------------------------------|
|0-0-0-0-0-0-0-0-0-0-3-5-6-5-3-5-|

Intermediate Part 3:

|--------------------------------| 7x
|--------------------------------|
|--------------------------------|
|0-0-0-0-0-0-0-0-0-0-0-0-0-0-0-0-|

|------------|
|------------|
|------------|
|6-5-3-5-3-1-|

|-----------|
|-----------|
|-----------|
|6-6-6-6-6-6|

Chorus 3:

|--------------------------------| 2x
|--------------------------------|
|--------------------------------|
|5-5-5-5-5-5-5-5-6-6-6-6-1-1-1-1-|

|-------------------------|
|-------------------------|
|-------------------------|
|5-5-5-5-5-5-5-5-1---1--3-|

Intermediate Part 4:

|----------------|
|----------------|
|----------------|
|0-0-0-0-0-0-0-0-|

|--------------------|
|--------------------|
|--------------------|
|0~--------/6~----5~-|

Outro

|------------------------------| 4x
|------------------------------|
|------------------------------|
|0-0-0-76-0-0-65-0-3-5-6-5-3-5-|

|--------|
|--------|
|--------|
|5-5-5-5-|

|------------------------------| 2x
|------------------------------|
|------------------------------|
|0-0-0-76-0-0-65-0-3-5-6-5-3-5-|

|--------------------------|
|--------------------------|
|--------------------------|
|0-0-0-0-0-0-0-0-0~----7-6-|
Suggest correction
comments
print report bad tab
3 comments total.
0 reply
MrTwister24 10 Sep 17, 2016 12:06 AM

didn't like this contribution

0 reply
brodyforde 12 Oct 30, 2016 07:28 PM

In Intermediate Part 3 where you have
|------------|
|------------|
|------------|
|6-5-3-5-3-2-|
I'm pretty sure its
|------------|
|------------|
|------------|
|6-5-3-5-3-1-|

0 reply
zdahleen1 10 Nov 10, 2016 04:47 PM

Rhythm* not rythm

guest
You may want to rate the tab now too:
select rating
Wanna post a correction for this tab? Suggest correction