Oops, an error
Loading. Please wait.
We have an official Hardwired tab made by UG professional guitarists. Check out the tab »
×
10,690 views 60 this week
2 commentsread comments
1 2 3 4 5
x 9
add to favorites
×
Save as Personal and add changes to this tab that will be seen only by you. Learn more ›
×
You can save this tab as Personal to edit and correct it or add notes. All changes will be seen only by you. Learn more »
launch autoscroll
font size
0
reset
how to read this tab
guitar tuner
backing track
0:00
0:00
edit
Autoscroll
slow
fast
+/-
esc
set tempo
stop
Author
Difficulty
Tabbed by: Joshua Garcia (joshuag523@aol.com)

Tabs for the song: Hardwired by Metallica
Please rate and let me know if you have any corrections. Thank you.


Tuning: Standard (E A D G B E)


[Intro]
Guitar 1:
E||-------------------------------------------------|
B||-------------------------------------------------|
G||-------------------------------------------------|
D||-------------------------------------------------| x6
A||-------------------------------------------------|
E||--000---000---000---000---000---000---000---000--|
     ...   ...   ...   ...   ...   ...   ...   ...


Guitar 2:
E||-------|-------|-------------|-------------|
B||-------|-------|-------------|-------------|
G||-------|-------|-------------|-------------|
D||--9-8--|--9-8--|--9-8---8-7--|--9-8---8-7--|
A||--9-8--|--9-8--|--9-8---8-7--|--9-8---8-7--|
E||--7-6--|--7-6--|--7-6---6-5--|--7-6---6-5--|


Guitar 1/2:
E||----------------------------------------|----------------------------------------|
B||----------------------------------------|----------------------------------------|
G||----------------------------------------|----------------------------------------|
D||----------9-8~--8-7---------------------|----------9-8~--8-7---------------------|
A||----------9-8~--8-7---------------------|----------9-8~--8-7---------------------|
E||--000---007-6~--6-50---000---000---000--|--000---007-6~--6-50---000---000---000--|
     ...   ..         .   ...   ...   ...     ...   ..         .   ...   ...   ...


E||-------------------------------------------------------|
B||-------------------------------------------------------|
G||-------------------------------------------------------|
D||----------9-8~--8-7~--9-8~--8-7~--------------2~--9-8--|
A||----------9-8~--8-7~--9-8~--8-7~--------------2~--9-8--|
E||--000---007-6~--6-5~--7-6~--6-5~--3-5-6-5-3-5-0~--7-6--|
     ...   ..



[Pre-Verse]
Guitar 1/2:
E||---------------------------------------|
B||---------------------------------------|
G||---------------------------------------|
D||----------9-8------8-7-----------------| x4
A||----------9-8------8-7-----------------|
E||--0--0000-7-6-0000-6-5-00-3-5-6-5-3-5--|
        ....     ....     ..

E||-----------------|
B||-----------------|
G||-----------------|
D||--7---7---7---7--|
A||--7---7---7---7--|
E||--5---5---5---5--|



[Verse]
Guitar 1/2:
E||---------------------------------------|---------------------------------------|
B||---------------------------------------|---------------------------------------|
G||---------------------------------------|---------------------------------------|
D||----------9-8------8-7-----------------|----------9-8------8-7-----------------|
A||----------9-8------8-7-----------------|----------9-8------8-7-----------------|
E||--0--0000-7-6-0000-6-5-00000000000000--|--0--0000-7-6-0000-6-5-00000000000000--|
        ....     ....     ..............        ....     ....     ..............


E||---------------------------------------|---------------------------------------|
B||---------------------------------------|---------------------------------------|
G||---------------------------------------|---------------------------------------|
D||----------9-8------8-7-----------------|----------9-8------8-7-----------------|
A||----------9-8------8-7-----------------|----------9-8------8-7-----------------|
E||--0--0000-7-6-0000-6-5-00000000000000--|--0--0000-7-6-0000-6-5-00-3-5-6-5-3-5--|
        ....     ....     ..............        ....     ....     ..



[Chorus]
Guitar 1/2:
E||---------------------|---------------------|----------------------|
B||---------------------|---------------------|----------------------|
G||----------------10~--|----------------10~--|----------------------|
D||--7~-------8~---10~--|--7~-------8~---10~--|--7~-------3---3---5--|
A||--7~-------8~---8~---|--7~-------8~---8~---|--7~-------3---3---5--|
E||--5~-------6~---8~---|--5~-------6~---8~---|--5~-------1---1---3--|


E||-----------------------------------|
B||-----------------------------------|
G||-----------------------------------|
D||--------------------------2~--9-8--|
A||--------------------------2~--9-8--|
E||--000---000---000---000---0~--7-6--|
     ...   ...   ...   ...



[Pre-Verse]
Guitar 1/2:
E||---------------------------------------|
B||---------------------------------------|
G||---------------------------------------|
D||----------9-8------8-7-----------------| x4
A||----------9-8------8-7-----------------|
E||--0--0000-7-6-0000-6-5-00-3-5-6-5-3-5--|
        ....     ....     ..

E||-----------------|
B||-----------------|
G||-----------------|
D||--7---7---7---7--|
A||--7---7---7---7--|
E||--5---5---5---5--|



[Verse]
Guitar 1/2:
E||---------------------------------------|---------------------------------------|
B||---------------------------------------|---------------------------------------|
G||---------------------------------------|---------------------------------------|
D||----------9-8------8-7-----------------|----------9-8------8-7-----------------|
A||----------9-8------8-7-----------------|----------9-8------8-7-----------------|
E||--0--0000-7-6-0000-6-5-00000000000000--|--0--0000-7-6-0000-6-5-00000000000000--|
        ....     ....     ..............        ....     ....     ..............


E||---------------------------------------|---------------------------------------|
B||---------------------------------------|---------------------------------------|
G||---------------------------------------|---------------------------------------|
D||----------9-8------8-7-----------------|----------9-8------8-7-----------------|
A||----------9-8------8-7-----------------|----------9-8------8-7-----------------|
E||--0--0000-7-6-0000-6-5-00000000000000--|--0--0000-7-6-0000-6-5-00-3-5-6-5-3-5--|
        ....     ....     ..............        ....     ....     ..



[Chorus]
Guitar 1/2:
E||---------------------|---------------------|----------------------|
B||---------------------|---------------------|----------------------|
G||----------------10~--|----------------10~--|----------------------|
D||--7~-------8~---10~--|--7~-------8~---10~--|--7~-------3---3---5--|
A||--7~-------8~---8~---|--7~-------8~---8~---|--7~-------3---3---5--|
E||--5~-------6~---8~---|--5~-------6~---8~---|--5~-------1---1---3--|


E||-----------------------------------|
B||-----------------------------------|
G||-----------------------------------|
D||--------------------------2~--9-8--|
A||--------------------------2~--9-8--|
E||--000---000---000---000---0~--7-6--|
     ...   ...   ...   ...



[Breakdown]
Guitar 1/2:
E||--------------------------------------------------------------------------|
B||--------------------------------------------------------------------------|
G||--------------------------------------------------------------------------|
D||--------------------------------------------------------------------------|
A||----/7----------------/7----------------/7--------------------------------|
E||--0-----5--6--3--5--0-----5--6--3--5--0-----5--6--3--5--6--5--3--5--3--1--|


E||--------------------------------------------------------------------|
B||--------------------------------------------------------------------|
G||--------------------------------------------------------------------|
D||--------------------------------------------------------8----8-7-5--| x2
A||----/7----------------/7----------------/7--------------8----8-7-5--|
E||--0-----5--6--3--5--0-----5--6--3--5--0-----5--6--3--5--6----6-5-3--|



[Solo]
Guitar 1:
E||-----------------------------------------------------------------------------------------|
B||-----------------------------------------------------------------------------------------|
G||--/9999999999999999-7/999999999999999-7-9-7---9-7---9-7---9-7---9-8-7--------------------|
D||--------------------------------------------9-----9-----9-----9-------9-8-7----8-7-------|
A||----------------------------------------------------------------------------10-----10-7--|
E||-----------------------------------------------------------------------------------------|


E||--7------------------------------------7-10-7----7-10-7----7-10-7----7-10----7-10-7----7-10-7----7-10\--|
B||--8-----------8-10-8-----------8-10b12--------10--------10--------10------10--------10--------10--------|
G||------9-9---9----------9-9---9--------------------------------------------------------------------------|
D||--------------------------------------------------------------------------------------------------------|
A||--------------------------------------------------------------------------------------------------------|
E||--------------------------------------------------------------------------------------------------------|


E||--15b17---15b17---15b17---15b17---17b19~----15p12---------------|
B||----------------------------------17b19~------------------------|
G||----------------------------------------------------\\pick\\----|
D||-----------------------------------------------------\\slide\\--|
A||----------------------------------------------------------------|
E||----------------------------------------------------------------|


Guitar 2:
E||------------------------------|
B||------------------------------|
G||------------------------------|
D||------------------------------| x4
A||------------------------------|
E||--0-000000000000-3-5-6-5-3-5--|
       ............


E||--------------------------------------------------------------------------|
B||--------------------------------------------------------------------------|
G||--------------------------------------------------------------------------|
D||--------------------------------------------------------------------------|
A||----/7----------------/7----------------/7--------------------------------|
E||--0-----5--6--3--5--0-----5--6--3--5--0-----5--6--3--5--6--5--3--5--3--1--|


Guitar 1/2:
E||--------------------------------------------------------------------------|
B||--------------------------------------------------------------------------|
G||--------------------------------------------------------------------------|
D||--------------------------------------------------------------------------|
A||----/7----------------/7----------------/7--------------------------------|
E||--0-----5--6--3--5--0-----5--6--3--5--0-----5--6--3--5--6--5--3--5--3--1--|



[Bridge]
Guitar 1/2:
E||------------------------------|
B||------------------------------|
G||------------------------------|
D||------------------------------| x4
A||------------------------------|
E||--0-000000000000-3-5-6-5-3-5--|
       ............


E||--------------------------------------------------------------------------|
B||--------------------------------------------------------------------------|
G||--------------------------------------------------------------------------|
D||--------------------------------------------------------------------------|
A||----/7----------------/7----------------/7--------------------------------|
E||--0-----5--6--3--5--0-----5--6--3--5--0-----5--6--3--5--6--5--3--5--3--1--|


E||--------------------------------------------------------------------------|
B||--------------------------------------------------------------------------|
G||--------------------------------------------------------------------------|
D||--------------------------------------------------------8--7--5--7--5--3--|
A||----/7----------------/7----------------/7--------------8--7--5--7--5--3--|
E||--0-----5--6--3--5--0-----5--6--3--5--0-----5--6--3--5--6--5--3--5--3--1--|
                                                           .  .  .  .  .  .

E||--------------------|
B||--------------------|
G||--------------------|
D||--8--8--8--8--8--8--|
A||--8--8--8--8--8--8--|
E||--6--6--6--6--6--6--|



[Chorus]
Guitar 1/2:
E||---------------------|---------------------|----------------------|
B||---------------------|---------------------|----------------------|
G||----------------10~--|----------------10~--|----------------------|
D||--7~-------8~---10~--|--7~-------8~---10~--|--7~-------3---3---5--|
A||--7~-------8~---8~---|--7~-------8~---8~---|--7~-------3---3---5--|
E||--5~-------6~---8~---|--5~-------6~---8~---|--5~-------1---1---3--|


E||---------------------------------------|
B||---------------------------------------|
G||---------------------------------------|
D||--------------------------2~-----8--7--|
A||--------------------------2~-----8--7--|
E||--000---000---000---000---0~-----6--5--|
     ...   ...   ...   ...



[Pre-Verse]
Guitar 1/2:
E||---------------------------------------|
B||---------------------------------------|
G||---------------------------------------|
D||----------9-8------8-7-----------------| x4
A||----------9-8------8-7-----------------|
E||--0--0000-7-6-0000-6-5-00-3-5-6-5-3-5--|
        ....     ....     ..


E||--------------|
B||--------------|
G||--------------|
D||--7--7--7--7--|
A||--7--7--7--7--|
E||--5--5--5--5--|



[Outro]
Guitar 1/2:
E||---------------------------------------|
B||---------------------------------------|
G||---------------------------------------|
D||----------9-8------8-7-----------------| x2
A||----------9-8------8-7-----------------|
E||--0--0000-7-6-0000-6-5-00-3-5-6-5-3-5--|
        ....     ....     ..


E||-----------------------------------|
B||-----------------------------------|
G||-----------------------------------|
D||--------------------------2~--9-8--|
A||--------------------------2~--9-8--|
E||--000---000---000---000---0~--7-6--|
     ...   ...   ...   ...





*****************************
-Tablature Legend-

h   hammer-on
p   pull-off
b   bend
pb  pre-bend
r   release bend
~   hold / vibrato
.   palm mute
/   slide up
\   slide down
*   pinch harmonic
'   natural harmonic
x   mute note
T   tap

*****************************

            
            
Suggest correction
Creating personal tab
Creating personal tab
You can edit any tab online and save it as your Personal.

You can edit, replace or remove any tab part or add personal notes – all changes will be seen only by you.

Personal tabs can be accessed anytime from any device, even offline.
Learn more »
comments
print report bad tab
2 comments total.
0 reply
valderonix 56 Aug 23, 2016 10:39 AM

If you would of work together with sashki, you guys could make a bomb 100% tab. But still this and the other tab is really really accurate! Good shit!

0 reply
alexherbst0 10 Nov 03, 2016 01:33 PM

Thanks for the good tab!
I'm not quite sure but I think in the chorus they play F instead of C powerchord. It sounds better for me.
But apart from that that are nice tabs!

guest
You may want to rate the tab now too:
select rating
Wanna post a correction for this tab? Suggest correction