Oops, an error
Loading. Please wait.

Hell And Back Bass Tab

version 1
version 1

Whole song

Interactive

1,485 views 1 this week
no commentswrite comment
1 2 3 4 5
please rate
add to favorites
launch autoscroll
font size
0
reset
guitar tuner
Autoscroll
slow
fast
+/-
esc
set tempo
stop
Help us to improve Ultimate-Guitar.com Take our survey!
×
Contributor
Difficulty
novice
-------------------------------------------------------------------------------
                             Hell and Back - Metallica
-------------------------------------------------------------------------------

NOTE: this tab is for 5string if u have 4 then knock the G off and tune BEAD, and also i 
know some rhythms in this song are hard so ill put in beats for those measures

Tabbed by: MetallicaDMRTL

Tuning:BEADG

Beat:125

  1   2   3   4  1   2   3   4   1   2   3   4  1   2   3   4
G|--------------|--------------|---------------|--------------|
D|--------------|--------------|---------------|--------------|
A|--------------|--------------|---------------|--------------| x2
E|-r--r--(0)----|--------0---r-|-r---r--(0)----|-0--r---0---r-|
B|--------------|--------------|---------------|--------------|

G|-------------|
D|-------------|
A|-------------|
E|-*-*-*-*-*-*-|
B|-4-4-4-4-4-4-|

G|-----------------|-----------|
D|-----------------|-----------|
A|-----------------|-----------|
E|-3-3-3-3-3-3-3-3-|-*-*-*-*-*-|
B|-----------------|-4-4-4-4-4-|

G|-------------------|-------------------|
D|-------------------|-------------------|
A|-2-2-2h3-----------|-------------------| x4
E|---------3h5-0-0-0-|-0-0-0-0-3h5-0-0-0-|
B|-------------------|-------------------|

G|----------------|--------------|----------------|-------------|
D|----------------|--------------|----------------|-------------|
A|--------3-3-2-3-|--2--3--2-2-2-|--------3-3-2-3-|--2\8--7-7---|
E|-0--0-0---------|--------------|-0--0-0---------|-----------0-|
B|----------------|--------------|----------------|-------------|

G|-----------|---------|
D|-----------|---------|
A|-----------|---------| x4
E|-----------|---------|
B|-5--5\---5-|-5-------|

G|--------------|---------------|
D|--------------|---------------|
A|--------------|---------------| x3
E|--------------|---------------|
B|-5-5\-x-5-r-5-|-5-r-5-r-3-r-5-|

G|--------------|-----------------|
D|--------------|-----------------|
A|--------------|-----------------|
E|--------------|-0-0-0-0-0-0-0-0-|
B|-5-5\-x-5-r-5-|-----------------|

G|-----------------|-----------------|
D|-----------------|-----------------|
A|-3-3-3-3-3-3-3-3-|-2-2-2-2-2-2-2-2-|
E|-----------------|-----------------|
B|-----------------|-----------------|

G|-----------------|-----------------|-----------------|
D|-----------------|-----------------|-----------------|
A|-5-5-5-5-5-5-5-5-|-2-2-2-2-2-2-2-2-|-----------------|
E|-----------------|-----------------|-3-3-3-3-3-3-3-3-|
B|-----------------|-----------------|-----------------|

G|-------------|
D|-------------|
A|-------------|
E|-*-*-*-*-*-*-|
B|-4-4-4-4-4-4-|

G|-------------------|-------------------|
D|-------------------|-------------------|
A|-2-2-2h3-----------|-------------------| x2
E|---------3h5-0-0-0-|-0-0-0-0-3h5-0-0-0-|
B|-------------------|-------------------|

G|-----------------|-----------------|
D|-----------------|-----------------|
A|-3-3-3-3-3-3-3-3-|-2-2-2-2-2-2-2-2-|
E|-----------------|-----------------|
B|-----------------|-----------------|

G|-----------------|-----------------|-----------------|
D|-----------------|-----------------|-----------------|
A|-5-5-5-5-5-5-5-5-|-2-2-2-2-2-2-2-2-|-----------------|
E|-----------------|-----------------|-3-3-3-3-3-3-3-3-|
B|-----------------|-----------------|-----------------|

G|-------------|
D|-------------|
A|-------------|
E|-*-*-*-*-*-*-|
B|-4-4-4-4-4-4-|

G|-------------------|-------------------|
D|-------------------|-------------------|
A|-2-2-2h3-----------|-------------------| x4
E|---------3h5-0-0-0-|-0-0-0-0-3h5-0-0-0-|
B|-------------------|-------------------|

G|----------------|--------------|----------------|-------------|
D|----------------|--------------|----------------|-------------|
A|--------3-3-2-3-|--2--3--2-2-2-|--------3-3-2-3-|--2\8--7-7---|
E|-0--0-0---------|--------------|-0--0-0---------|-----------0-|
B|----------------|--------------|----------------|-------------|

G|-----------|---------|
D|-----------|---------|
A|-----------|---------| x4
E|-----------|---------|
B|-5--5\---5-|-5-------|

G|--------------|---------------|
D|--------------|---------------|
A|--------------|---------------| x3
E|--------------|---------------|
B|-5-5\-x-5-r-5-|-5-r-5-r-3-r-5-|

G|--------------|-----------------|
D|--------------|-----------------|
A|--------------|-----------------|
E|--------------|-0-0-0-0-0-0-0-0-|
B|-5-5\-x-5-r-5-|-----------------|

G|-----------------|-----------------|
D|-----------------|-----------------|
A|-3-3-3-3-3-3-3-3-|-2-2-2-2-2-2-2-2-|
E|-----------------|-----------------|
B|-----------------|-----------------|

G|-----------------|-----------------|-----------------|
D|-----------------|-----------------|-----------------|
A|-5-5-5-5-5-5-5-5-|-2-2-2-2-2-2-2-2-|-----------------|
E|-----------------|-----------------|-3-3-3-3-3-3-3-3-|
B|-----------------|-----------------|-----------------|

G|-------------|
D|-------------|
A|-------------|
E|-*-*-*-*-*-*-|
B|-4-4-4-4-4-4-|

G|-------------------|-------------------|
D|-------------------|-------------------|
A|-2-2-2h3-----------|-------------------| x2
E|---------3h5-0-0-0-|-0-0-0-0-3h5-0-0-0-|
B|-------------------|-------------------|

G|-----------------|-----------------|
D|-----------------|-----------------|
A|-3-3-3-3-3-3-3-3-|-2-2-2-2-2-2-2-2-|
E|-----------------|-----------------|
B|-----------------|-----------------|

G|-----------------|-----------------|-----------------|
D|-----------------|-----------------|-----------------|
A|-5-5-5-5-5-5-5-5-|-2-2-2-2-2-2-2-2-|-----------------|
E|-----------------|-----------------|-3-3-3-3-3-3-3-3-|
B|-----------------|-----------------|-----------------|

G|-------------|
D|-------------|
A|-------------|
E|-*-*-*-*-*-*-|
B|-4-4-4-4-4-4-|

G|-------------------|-------------------|
D|-------------------|-------------------|
A|-2-2-2h3-----------|-------------------| x3
E|---------3h5-0-0-0-|-0-0-0-0-3h5-0-0-0-|
B|-------------------|-------------------|

G|-------------------|-----------|-----------|
D|-------------------|-----------|-----------|
A|-2-2-2h3-----------|-----------|-----------|
E|---------3h5-0-0-0-|-*-*-*-*-*-|-(0)-------|
B|-------------------|-4-4-4-4-4-|-----------|

G|---------------------|
D|---------------------|
A|---------------------| x8
E|---------------------|
B|-3h5-5-5-r-3h5-5-5-r-|

G|-------------|
D|-------------|
A|---2-1---2-1-| x2
E|-0-----0-----|
B|-------------|

G|--------------|
D|--------------|
A|---4-3--0-2---| x4
E|-2----------3-|
B|--------------|

G|---------------------|
D|---------------------|
A|---------------------| x4
E|---------------------|
B|-3h5-5-5-r-3h5-5-5-r-|

G|--------------|
D|--------------|
A|---4-3--0-2---| x4
E|-2----------3-|
B|--------------|

G|--------------|
D|--------------|
A|---6-5----4---| x4
E|-4------7---5-|
B|--------------|

G|--------------|
D|--------------|
A|-*-*-*--------| x4
E|-6-6-6/9-11-7-|
B|--------------|

G|-------------|-------------|-------------|----|
D|---4-3---4-3-|---5-4---6-5-|-------------|----|
A|-2-----2-----|-3-----4-----|-5-5-5-5-5-5-|-5/-|
E|-------------|-------------|-------------|----|
B|-------------|-------------|-------------|----|

G|---------------------|
D|---------------------|
A|---------------------| x8
E|---------------------|
B|-3h5-5-5-r-3h5-5-5-r-|

G|-----------------|-----------------|
D|-----------------|-----------------|
A|-3-3-3-3-3-3-3-3-|-2-2-2-2-2-2-2-2-|
E|-----------------|-----------------|
B|-----------------|-----------------|

G|-----------------|-----------------|-----------------|
D|-----------------|-----------------|-----------------|
A|-5-5-5-5-5-5-5-5-|-2-2-2-2-2-2-2-2-|-----------------|
E|-----------------|-----------------|-3-3-3-3-3-3-3-3-|
B|-----------------|-----------------|-----------------|

G|-------------|
D|-------------|
A|-------------|
E|-*-*-*-*-*-*-|
B|-4-4-4-4-4-4-|

G|-------------------|-------------------|
D|-------------------|-------------------|
A|-2-2-2h3-----------|-------------------| x2
E|---------3h5-0-0-0-|-0-0-0-0-3h5-0-0-0-|
B|-------------------|-------------------|

G|-----------------|-----------------|
D|-----------------|-----------------|
A|-3-3-3-3-3-3-3-3-|-2-2-2-2-2-2-2-2-|
E|-----------------|-----------------|
B|-----------------|-----------------|

G|-----------------|-----------------|-----------------|
D|-----------------|-----------------|-----------------|
A|-5-5-5-5-5-5-5-5-|-2-2-2-2-2-2-2-2-|-----------------|
E|-----------------|-----------------|-3-3-3-3-3-3-3-3-|
B|-----------------|-----------------|-----------------|

G|-------------|
D|-------------|
A|-------------|
E|-*-*-*-*-*-*-|
B|-4-4-4-4-4-4-|

G|-------------------|-------------------|
D|-------------------|-------------------|
A|-2-2-2h3-----------|-------------------| x2
E|---------3h5-0-0-0-|-0-0-0-0-3h5-0-0-0-|
B|-------------------|-------------------|

G|-----------------|-----------------|
D|-----------------|-----------------|
A|-3-3-3-3-3-3-3-3-|-2-2-2-2-2-2-2-2-|
E|-----------------|-----------------|
B|-----------------|-----------------|

G|-----------------|-----------------|-----------------|
D|-----------------|-----------------|-----------------|
A|-5-5-5-5-5-5-5-5-|-2-2-2-2-2-2-2-2-|-----------------|
E|-----------------|-----------------|-3-3-3-3-3-3-3-3-|
B|-----------------|-----------------|-----------------|

G|-------------|
D|-------------|
A|-------------|
E|-*-*-*-*-*-*-|
B|-4-4-4-4-4-4-|

G|-------------------|-------------------|
D|-------------------|-------------------|
A|-2-2-2h3-----------|-------------------| x3
E|---------3h5-0-0-0-|-0-0-0-0-3h5-0-0-0-|
B|-------------------|-------------------|

G|-------------------|-----------|-----------|
D|-------------------|-----------|-----------|
A|-2-2-2h3-----------|-----------|-----------|
E|---------3h5-0-0-0-|-*-*-*-*-*-|-(0)-------|
B|-------------------|-4-4-4-4-4-|-----------|

G|---------------------|    |-----|
D|---------------------|    |-----|
A|---------------------| x8 |-----|
E|---------------------|    |-0---|
B|-3h5-5-5-r-3h5-5-5-r-|    |-----|

MetallicaDMRTL

LOAD, RELOAD, and LULU to come...

                       \m/Metallica\m/

Btw i tabbed by ear and this part i cant tell but theres a 2nd way to play this rift, 
ive seen trujillo do it live but not sure cause they play in different keys live, so 
decide for yourself (and this everytime too) (optional)!!!!!!!!!!

G|-----------------|-----------------|
D|-----------------|-----------------|
A|-3-3-3-3-3-3-3-3-|-2-2-2-2-2-2-2-2-|
E|-----------------|-----------------|
B|-----------------|-----------------|

G|-----------------|-----------------|-----------------|
D|-----------------|-----------------|-----------------|
A|-5-5-5-5-5-5-5-5-|-----------------|-----------------|
E|-----------------|-----------------|-----------------|
B|-----------------|-2-2-2-2-2-2-2-2-|-3-3-3-3-3-3-3-3-|
comments
We did not receive enough feedback on this tab! Please rate:
print report bad tab
1 2 3 4 5
I want to post or [tab]
guest
You may want to rate the tab now too:
select rating
Please do not post tabs as comments. Select "correction" instead!