Oops, an error
Loading. Please wait.

Hell And Back Tab

version 4
version 4

Whole song

Interactive

2,394 views 12 this week
1 commentread comment
1 2 3 4 5
please rate
add to favorites
launch autoscroll
font size
0
reset
how to read this tab
guitar tuner
Tab Pro tools
  • play this tab
  • loop segment
  • change instrument
  • show fretboard
  • metronome
×
Best way to learn
"Hell And Back"
Autoscroll
slow
fast
+/-
esc
set tempo
stop
Contributor
Difficulty
novice
**********************************************************************
METALLICA - HELL AND BACK
**********************************************************************
Tabbed by: JohnnyB
Email:johnny.b.goode@windowslive.com
**********************************************************************
Tuning: E Standard (E sharp tuning at live)  


***Intro***
e|------------------------------------------------------------------|
B|------------------------------------------------------------------|
G|------------------------------------------------------------------| Riff A
D|---------2--2---2----2----2--2---2---2---2---2---2---2---3---2----| (Clean)
A|---------3--2---3----3----2--3---3---2---3---2---3---2------------| Play 4X 
E|--0---------------------------------------------------------------|

e|-------------------------------------|
B|-------------------------------------|
G|--8--8--8--8--8--8-------------------|
D|--8--8--8--8--8--8-------------------|  (Distortion On) 
A|--6--6--6--6--6--6-------------------|
E|-------------------------------------|

e|----------------------------------------------------------------------|
B|----------------------------------------------------------------------|
G|--5-5-5-5-5-5-5-5--2-2-2-2-2-2-2-2--7-7-7-7-7-7-7-7--4-4-4-4-4-4-4-4--| 
D|--5-5-5-5-5-5-5-5--2-2-2-2-2-2-2-2--7-7-7-7-7-7-7-7--4-4-4-4-4-4-4-4--| 
A|--3-3-3-3-3-3-3-3--4-4-4-4-4-4-4-4--5-5-5-5-5-5-5-5--2-2-2-2-2-2-2-2--|
E|----------------------------------------------------------------------|

e|-------------------------------------|
B|-------------------------------------|
G|--------------------8-8-8--8-8-8-----|
D|--7-7-7-7-7-7-7-7---8-8-8--8-8-8-----| 
A|--5-5-5-5-5-5-5-5---6-6-6--6-6-6-----|
E|--3-3-3-3-3-3-3-3--------------------|



e|-------------------------------------| 
B|-------------------------------------| Play 4X
G|-------------------------------------|  
D|-------------------------------------| Main Riff 
A|--2-2-2h3p2-----2--2-2-2-----2-------| 
E|------------3-5-0--0-0 0-3h5-0-------| 


e|------------------------------------------------------------|
B|---------5-5-4--5-4--5-4----------5-5-4--5-4--10-7----------|
G|---------x-x-x--x-x--x-x----------x-x-x--x-x--x--x----------| 
D|---------3-3-2--3-2--3-2----------3-3-2--3-2--8--9----------| 
A|---2------------------------2-------------------------------|
E|---0-0-0--------------------0-0-0---------------------------|

***Verse***

*Play Riff A (The Clean one at the start) 6 Times, after that:

     When the sun goes hell bound..(Optionally, you can slightly give sum drive)
e|----------------------------------------------------------------------|
B|----------------------------------------------------------------------|
G|----------------------------------------------------------------------| 
D|---------------------------------------------3-2----------------------|
A|------------3-2-3-2-3-2-2------------3-2-3-2---------------3-2-3-2----|
E|---0---0-0---------------------0--0-0---------------0--0-0--------3-0-|

e|--------------------------------|
B|--------------------------------|
G|--------------------------------| 
D|----------------------3-2-------|
A|--------------3-2-3-2-----3-2---|
E|------0--0-0--------------------|

***Chorus***

e|----------------------------------------------------------------------|
B|----------------------------------------------------------------------|
G|--5-5-5-5-5-5-5-5--2-2-2-2-2-2-2-2--7-7-7-7-7-7-7-7--4-4-4-4-4-4-4-4--| 
D|--5-5-5-5-5-5-5-5--2-2-2-2-2-2-2-2--7-7-7-7-7-7-7-7--4-4-4-4-4-4-4-4--| 
A|--3-3-3-3-3-3-3-3--4-4-4-4-4-4-4-4--5-5-5-5-5-5-5-5--2-2-2-2-2-2-2-2--|
E|----------------------------------------------------------------------|

e|-------------------------------------|
B|-------------------------------------|
G|--------------------8-8-8--8-8-8-----|
D|--7-7-7-7-7-7-7-7---8-8-8--8-8-8-----| 
A|--5-5-5-5-5-5-5-5---6-6-6--6-6-6-----|
E|--3-3-3-3-3-3-3-3--------------------|



e|-------------------------------------| 
B|-------------------------------------| Play 2X
G|-------------------------------------|  
D|-------------------------------------| 
A|--2-2-2h3p2-----2--2-2-2-----2-------| 
E|------------3-5-0--0-0 0-3h5-0-------| 


Play Power Chords Again*** 


e|-------------------------------------| 
B|-------------------------------------| Play 4X
G|-------------------------------------|  
D|-------------------------------------| 
A|--2-2-2h3p2-----2--2-2-2-----2-------| 
E|------------3-5-0--0-0 0-3h5-0-------| 

e|------------------------------------------------------------|
B|---------5-5-4--5-4--5-4----------5-5-4--5-4--10-7----------|
G|---------x-x-x--x-x--x-x----------x-x-x--x-x--x--x----------| 
D|---------3-3-2--3-2--3-2----------3-3-2--3-2--8--9----------| 
A|---2------------------------2-------------------------------|
E|---0-0-0--------------------0-0-0---------------------------|

Sshhhh..

***Play the whole verse&chorus stuff again...***

After that;
Bridge and sum lyrics on it (I become two we become...) (Play 8 Times) 
e|-----------------------------------------------------------------|
B|-----------------------------------------------------------------|
G|-----------------------------------------------------------------|
D|--x---------------x---------------x---------------x--------------| 
A|--x--2---2---2-2--x--2---2---2-2--x--2---2---2-2--x--2---2---2-2-| 
E|--x--0---0---0-0--x--0---0---0-0--x--0---0---0-0--x--0---0---0-0-|

e|--------------|
B|--------------|
G|--------------| 4 times
D|--------------|
A|-----2---1----|
E|--0-----------|


e|------------------------------|
B|------------------------------|
G|------------------------------|
D|------------------------------| Play 2 Times
A|----4-3-------------4-3-------|
E|--2------5-7-3----2-----5-7-3-|

***Play the bridge with sum lyrics on it for 2 times***

e|------------------------------|
B|------------------------------|
G|------------------------------|
D|------------------------------| Play 2 Times
A|----4-3-------------4-3-------|
E|--2------5-7-3----2-----5-7-3-|

e|------------------------------|
B|------------------------------|
G|------------------------------|
D|------------------------------| Play 2 Times
A|----6-5-------------6-5-------|
E|--4------7-9-5----4-----7-9-5-|



e|-------------------------------|
B|-------------------------------|
G|------------3------------------|
D|--3-3-3---6-1-4----------------| Play 4 Times
A|--1-1-1---4---2----------------|
E|-------------------------------|


Bridge  (Make a pick slide at the end)
e|-----------------------------------------------------------|
B|-----------------------------------------------------------|
G|-----------------------------------------------------------|
D|----4-3---4-3----5-4----6-5--12-12-12-12-12-12-12\0--------| 
A|--2-----2------3------4------10-10-10-10-10-10-10\0--------|
E|-----------------------------10-10-10-10-10-10-10\0--------|

Rhythm Guitar (Solo Part) (play for 8x, after play 2 complete chorus...)
e|-----------------------------------------------------------------|
B|-----------------------------------------------------------------|
G|-----------------------------------------------------------------|
D|--x---------------x---------------x---------------x--------------| 
A|--x--2---2---2-2--x--2---2---2-2--x--2---2---2-2--x--2---2---2-2-| 
E|--x--0---0---0-0--x--0---0---0-0--x--0---0---0-0--x--0---0---0-0-|

***Outro (6.25)***

e|------------|
B|------------|
G|------------|
D|---2-5--2---|  play that rhythm fill for 16 times...
A|---2-5--2---| 
E|---0-3--0---|


| /  slide up
| \  slide down
| h  hammer-on
| p  pull-off
| ~  vibrato
| +  harmonic
| x  Mute note

Good Luck!
comments
We did not receive enough feedback on this tab! Please rate:
print report bad tab
1 2 3 4 5
1 comment total.
0 reply
strange-prowler wrote on April 28 2013, 02:49 pm

e|------------------------------------------------------------|
B|---------5-5-4--5-4--5-4----------5-5-4--5-4--10-7----------|
G|---------x-x-x--x-x--x-x----------x-x-x--x-x--x--x----------|
D|---------3-3-2--3-2--3-2----------3-3-2--3-2--8--9----------|
A|---2------------------------2-------------------------------|
E|---0-0-0--------------------0-0-0---------------------------|

really? are you deaf?

I want to post or [tab]
guest
You may want to rate the tab now too:
select rating
Please do not post tabs as comments. Select "correction" instead!