Oops, an error
Loading. Please wait.

Here Comes Revenge bass

version 1
version 1

Whole song

  • It is the first bass version. Hope it's good.

Interactive

868 views 1 this week
no commentswrite comment
1 2 3 4 5
x 3
add to favorites
×
Save as Personal and add changes to this tab that will be seen only by you. Learn more ›
×
You can save this tab as Personal to edit and correct it or add notes. All changes will be seen only by you. Learn more »
launch autoscroll
font size
0
reset
guitar tuner
backing track
0:00
0:00
edit
Autoscroll
slow
fast
+/-
esc
set tempo
stop
Author
Difficulty
About this tab version
It is the first bass version. Hope it's good. Was this info helpful? Yes No
Intro:

G|-----------------------------------------------------------------------------------|
D|-----------------------------------------------------------------------------------|
A|-----1~----------------1-1---------------------------------------------------------|
E|-3-1-----3-1-0~----3-1------3-1-0~-------------------------------------------------|(x4)

G|-----------------------------------------------------------------------------------|
D|-----------------------------------------------------------------------------------|
A|-----1~----------------------------------------------------------------------------|
E|-3-1----3-1-0~---------------------------------------------------------------------|

Intro 2:

G|-----------------------------------------------------------------------------------|
D|-----------------------------------------------------------------------------------|
A|---------------------------------------------------1-1-----------------------------|
E|-0-7-00-7-0-5-6-0-6-00-6-0-3-5-0-5-00-5-0-3-00-3-0-----3-1-------------------------|(x2)

Main riff:

G|-----------------------------------------------------------------------------------|
D|-------------------5-5---5---5-----------------------------------------------------|
A|------------------------------------------------/5---------------------------------|
E|-0-000-0-000-0-0-6-----6---6----0-000-0-000-0-0----6-5-6-5-3-----------------------|(x2)

G|-----------------------------------------------------------------------------------|
D|-----------------------------------------------------------------------------------|
A|-2---------5-7*--------------------------------------------------------------------|
E|---3-2-3-2-------------------------------------------------------------------------|

G|-----------------------------------------------------------------------------------|
D|--------------------5-5---5---5----------------------------------------------------|
A|-------------------------------------------------/5--------------------------------|
E|-0*-000-0-000-0-0-6-----6---6----0-000-0-000-0-0----6-5-6-5-3----------------------|

The 7 from that little riff is the first 0 from second time the main riff is played

Pre verse:

G|-----------------------------------------------------------------------------------|
D|-----------------------------------------------------------------------------------|
A|-----------------------------------------------------------------------------------|
E|-0-0-0-0-0-0-0-0-------------------------------------------------------------------|(x4)

Verse:

G|-----------------------------------------------------------------------------------|
D|-----------------------------------------------------------------------------------|
A|-----------------------------------------------------------------------------------|
E|-3-3-3-3-3-3-3-3(x2)-2-2-2-2-2-2-2-2(x2)-------------------------------------------|(x4)

G|-----------------------------------------------------------------------------------|
D|-----------------------------------------------------------------------------------|
A|-------------------/5-----------/5-------------------------------------------------|
E|-33333333-33333333----6-5-6-5-3----6-5-6-5-3---------------------------------------|

Main riff x2 
(the second time you finish with the little bridge from the main riff from the intro. The one with G and F#)

Chorus:

G|-----------------------------------------------------------------------------------|
D|-----------------------------------------------------------------------------------|
A|-----------------------------------------------------------------------------------|
E|-0-0000-000-00-0-0000-000-1~-------------------------------------------------------|
                                                                                      >(x2)
G|-----------------------------------------------------------------------------------|
D|-----------------------------------------------------------------------------------|
A|-----------------------------------------------------------------------------------|
E|-0-0000-000-00-0-0000-3-3-3--------------------------------------------------------|

G|-----------------------------------------------------------------------------------|
D|-----------------------------------------------------------------------------------|
A|------------1~-----1----1----1-----------------------------------------------------|
E|-0-0000-000----0-0---00---00-------------------------------------------------------|

G|-----------------------------------------------------------------------------------|
D|-----------------------------------------------------------------------------------|
A|-----------------------------------------------------------------------------------|
E|-0-0000-000-00-0-0000-3-3-3--------------------------------------------------------|

G|-----------------------------------------------------------------------------------|
D|-----------------------------------------------------------------------------------|
A|------------1~-----1----1----1-----------------------------------------------------|
E|-0-0000-000----0-0---00---00-------------------------------------------------------|

G|-----------------------------------------------------------------------------------|
D|-----------------------------------------------------------------------------------|
A|----------------------------------------8-10-8-5~-7~-------------------------------|
E|-0-0000-000-00-0-0000-3-3-3-3-3-3-3-3-3--------------------------------------------|

Main riff (only the first part x2)
Pre verse again.
Verse again.
Main riff x2 again, with the same specification above: the little bridge with G and F#.
Chorus again.

Maian riff olny once. After main riff you go into the part before the solo:

G|-----------------------------------------------------------------------------------|
D|-------------------------------------5---5---------------------5---5---------------|
A|-----------------------------------------------------------------------------------|
E|-0~----5b-0~----5b-0-3-5-6-5-3-0-3-0---6---6-0-3-5-6-5-3-0-3-0---6---6-------------|

G|-----------------------------------------------------------------------------------|
D|---5-7-8-7-5---5----5-7-8-7-5---5----5-7-8-7-5---5---------------------------------|
A|-7-----------7----7-----------7----7-----------7---7(stop)-------------------------|
E|------------------------------------------------------------0~---------------------|

During the solo you play the chorus once!

After solo:

G|-----------------------------------------------------------------------------------|
D|-------------------------------------5-7-8-7-5---5----5-7-8-7-5---5----------------|
A|-----------------------------------7-----------7----7-----------7------------------|
E|-0-3-5-6-5-3-0-3--0-3-5-6-5-3-0-3--------------------------------------------------|

G|-----------------------------------------------------------------------------------|
D|-----------------------------------------------------------------------------------|
A|-/5------------/5------------2---------5-------------------------------------------|
E|----6-5-6-5-3-----6-5-6-5-3----3-2-3-2---------------------------------------------|

Chorus again, like the other two.

Outro:

G|-----------------------------------------------------------------------------------|
D|-----------------------------------------------------------------------------------|
A|-----------------------------------------------------------------------------------|
E|-0-3-5-6-5-3-0-3--0-3-5-6-5-3-0-3--0-3-5-6-5-3-0-3--0(stop)------------------------|

G|-----------------------------------------------------------------------------------|
D|---5---5---------------------------------------------------------------------------|
A|-----------------------------------------------------------------------------------|
E|-0---6---6\-0-3-5-6-5-3-0-3--------------------------------------------------------|(x4)

G|-----------------------------------------------------------------------------------|
D|-----------------------------------------------------------------------------------|
A|-----------------------------------------------------------------------------------|
E|-0-3~-0-3~-0-0-3-5-6-5-3-0-3-------------------------------------------------------|(x4)

G|-----------------------------------------------------------------------------------|
D|-----------------------------------------------------------------------------------|
A|-----1~----------------1-1---------------------------------------------------------|
E|-3-1-----3-1-0~----3-1------3-1-0~-------------------------------------------------|(x2)

            
            
Suggest correction
Creating personal tab
Creating personal tab
You can edit any tab online and save it as your Personal.

You can edit, replace or remove any tab part or add personal notes – all changes will be seen only by you.

Personal tabs can be accessed anytime from any device, even offline.
Learn more »
Give kudos to tab author, rate the tab!
1 2 3 4 5
comments
print report bad tab
guest
You may want to rate the tab now too:
select rating
Wanna post a correction for this tab? Suggest correction