Oops, an error
Loading. Please wait.

Here Comes Revenge Tab

version 1
version 1

Whole song

  • Full song, solo not tabbed out yet.

Interactive

19,525 views 324 this week
8 commentsread comments
1 2 3 4 5
x 13
add to favorites
launch autoscroll
font size
0
reset
how to read this tab
guitar tuner
×
Best way to learn
"Here Comes Revenge"
Autoscroll
slow
fast
+/-
esc
set tempo
stop
Author
Difficulty
Tuning
  follow
novice
E A D G B E
About this tab version
Full song, solo not tabbed out yet. Was this info helpful? Yes No
Band: Metallica
Song: Here Comes Revenge
Album: Hardwired...To Self-Destruct

Tabbed by: deathx88

This tab is based off my guitar pro version.
Solo is not tabbed yet, but I suggest improvising it anyway since Kirk's solo is terrible.



Riff 1a (Intro) x2
     E  E  Q    E  E  Q       W                   E  E  E  E  E  E  Q       W                 
E||------------------------|-------------------|-------------------------|-------------------|
B||------------------------|-------------------|-------------------------|-------------------|
G||------------------------|-------------------|-------------------------|-------------------|
D||--------3---------------|-------------------|--------3--3-------------|-------------------|
A||--5--3--1----5--3--2----|-------------------|--5--3--1--1--5--3--2----|-------------------|
E||--3--1-------3--1--0----|-------------------|--3--1--------3--1--0----|-------------------|



Riff 1b x2
  E  E  Q    E  E  Q       E  E  E  E  E  E  E  E    
------------------------|---------------------------|
------------------------|---------------------------|
------------------------|---------------------------|
--------3---------------|---------------------------|
--5--3--1----5--3--2----|--9--------9-----7--8\-----|
--3--1-------3--1--0----|--7--0--0--7--0--5--6\-----|


  E  E  E  E  E  E  Q       E  E  E  E  E   E  E  E    
-------------------------|----------------------------|
-------------------------|----------------------------|
-------------------------|----------------------------|
--------3--3-------------|----------------------------|
--5--3--1--1--5--3--2----|--9--------9-----10--8\-----|
--3--1--------3--1--0----|--7--0--0--7--0---8--6\-----|



Play once before riff 2
   E  E  Q    E  E                 
-------------------|
-------------------|
-------------------|
--------3----------|
--5--3--1----5--3--|
--3--1-------3--1--|



Riff 2
  Q    E  E  E  E  E  E     E  E  E  E  E  E  E  E     E  E  E  E  E  E  E  E     E  E  E  E  E  E  E  E   
-------------------------|--------------------------|--------------------------|--------------------------|
-------------------------|--------------------------|--------------------------|--------------------------|
-------------------------|--------------------------|--------------------------|--------------------------|
-------------------------|--------------------------|--------------------------|--------------3--3--------|
--2----9--------9-----7--|--8-----8--------8-----5--|--7-----7--------7-----5--|--2--2--5-----1--1--------|
--0----7--0--0--7--0--5--|--6--0--6--0--0--6--0--3--|--5--0--5--0--0--5--0--3--|--0--0--3--0--------3--1--|


  E  E  E  E  E  E  E  E     E  E  E  E  E  E  E  E     E  E  E  E  E  E  E  E     E  E  E  E  E  E  E  E   
--------------------------|--------------------------|--------------------------|--------------------------|
--------------------------|--------------------------|--------------------------|--------------------------|
--------------------------|--------------------------|--------------------------|--------------------------|
--------------------------|--------------------------|--------------------------|--------------3--3--------|
--------9--------9-----7--|--8-----8--------8-----5--|--7-----7--------7-----5--|--2--2--5-----1--1--------|
--0--0--7--0--0--7--0--5--|--6--0--6--0--0--6--0--3--|--5--0--5--0--0--5--0--3--|--0--0--3--0--------3--1--|



Riff 3a (Main Riff) x2                                                (Alternate way to play riff)
  E  S S S S E  S S S S E  S S     E  E  E   E  E  E   Q               E   E   E   E   E  E    Q     
-------------------------------|----------------------------|       --------------------------------|
-------------------------------|----------------------------|       --------------------------------|
-------------------------------|----------------------------|       --------------------------------|
-------------------------------|------5--5~-----5-----/5----|       --------------------------------|
--2----------2----------2------|----------------------------|       ------10--10~-----10-----/10----|
--0--0-0-0-0-0--0-0-0-0-0--0-0-|--/6---------6-----6--------|       --/6-----------6------6---------|

  E  S S S S E  S S S S E  S S     Q    E  E  E  E  Q      
-------------------------------|--------------------------|
-------------------------------|--------------------------|
-------------------------------|--------------------------|
-------------------------------|--------------------------|
--2----------2----------2------|--/5----------------------|
--0--0-0-0-0-0--0-0-0-0-0--0-0-|--------6--5--6--5--3~----|



Riff 3b
  Q    E  E  E  E  Q        
------------------------|
------------------------|
--4----------------7----|
--4----------------7----|
--2----5--4--5--4--5----|
-------3--2--3--2--5----|



Riff 3c
  E  S S S S E  S S S S E  S S     E  E  E   E  E  E   Q      
-------------------------------|----------------------------|
-------------------------------|----------------------------|
-------------------------------|----------------------------|
--9\---------------------------|------5--5~-----5-----/5----|
--7\---------2----------2------|----------------------------|
-----0-0-0-0-0--0-0-0-0-0--0-0-|--/6---------6-----6--------|

  E  S S S S E  S S S S E  S S     Q    E  E  E  E  Q      
-------------------------------|--------------------------|
-------------------------------|--------------------------|
-------------------------------|--------------------------|
-------------------------------|--------------------------|
--2----------2----------2------|--/5----------------------|
--0--0-0-0-0-0--0-0-0-0-0--0-0-|--------6--5--6--5--3~----|



Before verse
  W                   W                   W                   W                 
-------------------|-------------------|-------------------|-------------------|
-------------------|-------------------|-------------------|-------------------|
-------------------|-------------------|-------------------|-------------------|
--2----------------|-------------------|-------------------|-------------------|
--2----------------|-------------------|-------------------|-------------------|
--0----------------|-------------------|-------------------|-------------------|



Riff 4a (Verse) x2
  Q.     Q.     Q       H.           Q       Q.     Q.     Q       W                 
---------------------|--------------------|---------------------|-------------------|
---------------------|--------------------|---------------------|-------------------|
---------------------|--------------------|---------------------|-------------------|
----------------0----|--------------------|----------------0----|-------------------|
---------1-----------|--------------------|---------0-----------|-------------------|
--3------------------|---------------3----|--2------------------|-------------------|



Riff 4b (verse continued) x2
  Q.     Q.     Q       Q.     Q.     Q       Q.     Q.     Q       Q.     Q.     Q     
---------------------|---------------------|---------------------|---------------------|
---------------------|---------------------|---------------------|---------------------|
---------------------|---------------------|---------------------|---------------------|
---------------------|--0------------------|---------------------|--0------------------|
---------0------1----|---------1-----------|---------0------1----|---------1------0----|
--3------------------|----------------3----|--2------------------|---------------------|



Riff 4c (verse continued)
  E  E  E  E  E  E  E  E     E  E  E  E  E  E  E  E      Q    E  E  E  E  Q        Q    E  E  E  E  Q      
--------------------------|--------------------------|--------------------------|-------------------------|
--------------------------|--------------------------|--------------------------|-------------------------|
--------------------------|--------------------------|--------------------------|--7----------------------|
--------------------------|--------------------------|--------------------------|--7----------------------|
--1--------1--------1-----|--1--------1--------1-----|--/5----------------------|--5----8--7--8--7--5-----|
--3--3--3--3--3--3--3--3--|--3--3--3--3--3--3--3--3--|--------6--5--6--5--3~----|--5----6--5--6--5--3~----|



Riff 3a
  E  S S S S E  S S S S E  S S     E  E  E   E  E  E   Q      
-------------------------------|----------------------------|
-------------------------------|----------------------------|
-------------------------------|----------------------------|
-------------------------------|------5--5~-----5-----/5----|
--2----------2----------2------|----------------------------|
--0--0-0-0-0-0--0-0-0-0-0--0-0-|--/6---------6-----6--------|
                                                             
  E  S S S S E  S S S S E  S S     Q    E  E  E  E  Q                
-------------------------------|--------------------------|      
-------------------------------|--------------------------|      
-------------------------------|--------------------------|       
-------------------------------|--------------------------|             
--2----------2----------2------|--/5----------------------|      
--0--0-0-0-0-0--0-0-0-0-0--0-0-|--------6--5--6--5--3~----|     

  E  S S S S E  S S S S E  S S     E  E  E   E  E  E   Q      
-------------------------------|----------------------------|
-------------------------------|----------------------------|
-------------------------------|----------------------------|
-------------------------------|------5--5~-----5-----/5----|
--2----------2----------2------|----------------------------|
--0--0-0-0-0-0--0-0-0-0-0--0-0-|--/6---------6-----6--------|
                                                             
  E  S S S S E  S S S S E  S S    Q    E  E  E  E  Q     
-------------------------------|------------------------|
-------------------------------|------------------------|
-------------------------------|--4----------------7----|
-------------------------------|--4----------------7----|       
--2----------2----------2------|--2----5--4--5--4--5----|
--0--0-0-0-0-0--0-0-0-0-0--0-0-|-------3--2--3--2--5----|




Riff 5 (Chorus)
  E  S  S S S E  S S S S E  S S    S S E  S S S S E  S S Q       E  S S S S E  S S S S E  S S  
--------------------------------|-----------------------------|-------------------------------|
--------------------------------|-----------------------------|-------------------------------|
--------------------------------|-----------------------------|-------------------------------|
--9\----------------------------|-----------------------------|-------------------------------|
--7\----------2----------2------|------2----------2------3----|--2----------2----------2------|
-----0--0-0-0-0--0-0-0-0-0--0-0-|--0-0-0--0-0-0-0-0--0-0-1----|--0--0-0-0-0-0--0-0-0-0-0--0-0-|


                 |----3----|                                                                   
  S S E  S S S S Q    Q    Q       E  S S S S E  S S S S E  S S    S S E  S S S S E  S S Q     
--------------------------------|-------------------------------|-----------------------------|
--------------------------------|-------------------------------|-----------------------------|
--------------------------------|-------------------------------|-----------------------------|
--------------------------------|-------------------------------|-----------------------------|
------2----------5----5----5----|--2----------2----------2------|------2----------2------3----|
--0-0-0--0-0-0-0-3----3----3----|--0--0-0-0-0-0--0-0-0-0-0--0-0-|--0-0-0--0-0-0-0-0--0-0-1----|


                                                 |----3----|                                   
  E  S S S S E  S S S S E  S S    S S E  S S S S Q    Q    Q       E  S S S S E  S S S S Q     
-------------------------------|--------------------------------|-----------------------------|
-------------------------------|--------------------------------|-----------------------------|
-------------------------------|--------------------------------|-----------------------------|
-------------------------------|--------------------------------|------------------------3----|
--2----------2----------2------|------2----------5----5----5----|--2----------2----------1----|
--0--0-0-0-0-0--0-0-0-0-0--0-0-|--0-0-0--0-0-0-0-3----3----3----|--0--0-0-0-0-0--0-0-0-0------|


                                                                                 |----3----|     
  S S S S E  S S E  S S E  S S    E  S S S S E  S S S S E  S S    S S E  S S S S Q    Q    Q     
-------------------------------|-------------------------------|--------------------------------|
-------------------------------|-------------------------------|--------------------------------|
-------------------------------|-------------------------------|--------------------------------|
----------3------3------3------|-------------------------------|--------------------------------|
----------1------1------1------|--2----------2----------2------|------2----------5----5----5----|
--0-0-0-0----0-0----0-0----0-0-|--0--0-0-0-0-0--0-0-0-0-0--0-0-|--0-0-0--0-0-0-0-3----3----3----|


  E  S S S S E  S S S S Q       S S S S E  S S E  S S E  S S    E  S S S S E  S S S S E  S S  
-----------------------------|-------------------------------|-------------------------------|
-----------------------------|-------------------------------|-------------------------------|
-----------------------------|-------------------------------|-------------------------------|
------------------------3----|----------3------3------3------|-------------------------------|
--2----------2----------1----|----------1------1------1------|--2----------2----------2------|
--0--0-0-0-0-0--0-0-0-0------|--0-0-0-0----0-0----0-0----0-0-|--0--0-0-0-0-0--0-0-0-0-0--0-0-|


                 |----3----|       |----3----|    |----3----|                                  
  S S E  S S S S Q    Q    Q       Q    Q    Q    Q    Q    Q        Q     Q     E  Q    E  S S   
--------------------------------|--------------------------------|-------------------------------|
--------------------------------|--------------------------------|-------------------------------|
--------------------------------|--------------------------------|-------------------------------|
--------------------------------|--------------------------------|--10----12----10--7----9\------|
------2----------5----5----5----|--5----5----5----5----5----5----|---8----10-----8--5----7\------|
--0-0-0--0-0-0-0-3----3----3----|--3----3----3----3----3----3----|-------------------------------|



Main Riff
Verse 2
Chorus 2
Main Riff



Bridge
  H        Q    Q        H        Q    Q        E  E  E  E  E  E  E  E   
----------------------|----------------------|--------------------------|
----------------------|----------------------|--------------------------|
----------------------|----------------------|--------------------------|
--2-------------------|--2-------------------|--------------------------|
--2-------------------|--2-------------------|--------------------------|
--0-------------5~----|--0-------------5~----|--0--3--5--6--5--3--0--3--|



Riff 6a (Bridge Riff) x2
  E   Q    E  Q    Q        E  E  E  E  E  E  E  E    
-------------------------|--------------------------|
-------------------------|--------------------------|
-------------------------|--------------------------|
-----/5-------5----------|--------------------------|
-------------------------|--------------------------|
--0--------6-------5\----|--0--3--5--6--5--3--0--3--|



Riff 6 Guitar Harmony x3                                                                   
  E  E  E  E  E  E  E  E               
--------------------------|
--------------------------|
--------------------------|
-----5--7--8--7--5-----5--|
--7-----------------7-----|
--------------------------|



Before solo
  PM PM PM PM PM PM PM PM                                          
  E  E  E  E  E  E  E  E     W                   W                 
--------------------------|-------------------|-------------------|
--------------------------|-------------------|-------------------|
--------------------------|-------------------|-------------------|
--------------------------|--2----------------|-------------------|
--2--5--7--8--7--5--2--5--|--2----------------|-------------------|
--0--3--5--6--5--3--0--3--|--0----------------|-------------------|



Solo (Chorus Riff)



After Solo
  E  E  E  E  E  E  E  E     E  E  E  E  E  E  E  E     E  E  E  E  E  E  E  E     E  E  E  E  E  E  E  E   
--------------------------|--------------------------|--------------------------|--------------------------|
--------------------------|--------------------------|--------------------------|--------------------------|
--------------------------|--------------------------|--------------------------|--------------------------|
--------------------------|--------------------------|-----5--7--8--7--5-----5--|-----5--7--8--7--5-----5--|
--------------------------|--------------------------|--7-----------------7-----|--7-----------------7-----|
--0--3--5--6--5--3--0--3--|--0--3--5--6--5--3--0--3--|--------------------------|--------------------------|


   Q    E  E  E  E  Q        Q    E  E  E  E  Q        Q    E  E  E  E  Q     
--------------------------|-------------------------|------------------------|
--------------------------|-------------------------|------------------------|
--/7----------------------|--7----------------------|--4----------------7----|
--------8--7--8--7--5~----|-------8--7--8--7--5~----|--4----------------7----|
--------------------------|-------------------------|--2----5--4--5--4--5----|
--------------------------|-------------------------|-------3--2--3--2--5----|



Chorus 3



After Chorus 3
                                                                                  PM PM PM PM PM PM PM PM  
  E  E  E  E  E  E  E  E     E  E  E  E  E  E  E  E     E  E  E  E  E  E  E  E     E  E  E  E  E  E  E  E   
--------------------------|--------------------------|--------------------------|--------------------------|
--------------------------|--------------------------|--------------------------|--------------------------|
--------------------------|--------------------------|--------------------------|--------------------------|
--------------------------|--------------------------|--------------------------|--------------------------|
--------------------------|--------------------------|--------------------------|--2--5--7--8--7--5--2--5--|
--0--3--5--6--5--3--0--3--|--0--3--5--6--5--3--0--3--|--0--3--5--6--5--3--0--3--|--0--3--5--6--5--3--0--3--|



Riff 6a x4
  E   Q    E  Q    Q        E  E  E  E  E  E  E  E    
-------------------------|--------------------------|
-------------------------|--------------------------|
-------------------------|--------------------------|
-----/5-------5----------|--------------------------|
-------------------------|--------------------------|
--0--------6-------5\----|--0--3--5--6--5--3--0--3--|



Riff 6b x4
  E  Q    E  Q    Q       E  E  E  E  E  E  E  E      
-----------------------|--------------------------|
-----------------------|--------------------------|
-----------------------|--------------------------|
-----------------------|--------------------------|
-----5-------5----2----|--------------------------|
--0--3----0--3----0----|--0--3--5--6--5--3--0--3--|

                                        
  W                   W                 
-------------------|-------------------|
-------------------|-------------------|
-------------------|-------------------|
--2----------------|-------------------|
--2----------------|-------------------|
--0----------------|-------------------|



Riff 1 (Outro) x2
     E  E  Q    E  E  Q       W                   E  E  E  E  E  E  Q       W                 
E||------------------------|-------------------|-------------------------|-------------------|
B||------------------------|-------------------|-------------------------|-------------------|
G||------------------------|-------------------|-------------------------|-------------------|
D||--------3---------------|-------------------|--------3--3-------------|-------------------|
A||--5--3--1----5--3--2----|-------------------|--5--3--1--1--5--3--2----|-------------------|
E||--3--1-------3--1--0----|-------------------|--3--1--------3--1--0----|-------------------|




Duration Legend
---------------
W - whole
H - half
Q - quarter
E - 8th
S - 16th
T - 32nd
X - 64th
. - note dotted
|-n-|  - n-tuplets


Tablature Legend
----------------
L - tied note
x - dead note
g - grace note
(n) - ghost note
> - accentuded note
NH - natural harmonic
AH - artificial harmonic
TH - tapped harmonic
SH - semi harmonic
PH - pitch harmonic
h - hammer on
p - pull off
b - bend
br - bendRelease
pb - preBend
pbr - preBendRelease
brb - bendReleaseBend
\n/ - tremolo bar dip
\n - tremolo bar dive
-/n - tremolo bar Release up
/n\ - tremolo bar inverted dip
/n - tremolo bar return
-\n - tremolo bar Release down
S - shift slide
s - legato slide
/ -  slide into from below or out of upwards
\ -  slide into from above or out of downwards
~ - vibrato
W - wide vibrato
tr - trill
TP - tremolo picking
T - tapping
S - slap
P - pop
< - fade in
^ - brush up
v - brush down
Suggest correction
comments
print report bad tab
8 comments total. Showing first comments.
+1 reply
dakotaefoote 10 Dec 04, 2016 07:09 PM

The solo doesn't suck, it's just super raw and dirty. A perfectly structured melodic solo wouldn't work as well for the style and theme. If you notice, a lot of this song is really dissonant and rough. Open your mind fool

0 reply
cooper9934 20 Dec 29, 2016 03:12 PM

can you tab your own solo to show us you are better than kirk? I would love to see it

0 reply
cooper9934 20 Dec 30, 2016 06:44 PM

Dude, you are obviously super good...The tab above is right on and I've had a lot of fun learning the song.

but do you really think you are better than kirk?

You really can't hear the backing track of the youtube video. It might sound better... but I got to say Kirks is WAY better. Sorry.

guest
You may want to rate the tab now too:
select rating
Wanna post a correction for this tab? Suggest correction