Oops, an error
Loading. Please wait.

Hero Of The Day Tab

version 1
version 1

Whole song

Interactive

144,771 views 198 this week
21 commentsread comments
1 2 3 4 5
accurate
x 53
add to favorites
launch autoscroll
font size
0
reset
how to read this tab
guitar tuner
Autoscroll
slow
fast
+/-
esc
set tempo
stop
Help us to improve Ultimate-Guitar.com Take our survey!
×
Tuning
D# G# C# F# A# D#
Hero Of The Day
Metallica

* Guitar should be tuned 1/2 step down. 


[Intro]

D#|----------------------------------------------------------------| 
A#|----------------------------------------------------------------| 
F#|----------------2-------2-------2-------2-------4-----4-----4---| 
C#|--------------2-------2-------2-------2-------6---4-----6-----6-| 
G#|------0-----0-------2-------4-------5-------7-------7-----7-----| 
D#|---2-----2------------------------------------------------------| 



D#|------------------------------------------------------------------------| 
A#|------------------------------------------------------------------------| 
F#|----------------2-------2-------2-------2---4---4-----4-----4---4p6p4---| 
C#|--------------2-------2-------2-------2-----6-6---4-----6-----6-------6\| 
G#|------0-----0-------2-------4-------5-------7-------7-----7-------------| 
D#|---2-----2--------------------------------------------------------------| 
  

[Verse]

D#|----------------------------------------------------------------| 
A#|----------------------------------------------------------------| 
F#|----------------2-------2-------2-------2-------4-----4-----4---| 
C#|--------------2-------2-------2-------2-------6---4-----6-----6-| 
G#|------0-----0-------2-------4-------5-------7-------7-----7-----| 
D#|---2-----2------------------------------------------------------| 



D#|----------------------------------------------------------------| 
A#|----------------------------------------------------------------| 
F#|----------------2-------2-------2-------2-------4-----4---4-4-4-| 
C#|--------------2-------2-------2-------2-------6---4-----6-6-6-6-| 
G#|------0-----0-------2-------4-------5-------7-------7-----7-7-7-| 
D#|---2-----2------------------------------------------------------| 


With distortion effect 

D#|----------------------------------------------------------------| 
A#|----------------------------------------------------------------| 
F#|----------------2-------2-------2-------2-------4--4---4---4-4-4| 
C#|--------------2-------2-------2-------2-------6----6---6---6-6-6| 
G#|------0-----0-------2-------4-------5-------7------7---7---7-7-7| 
D#|---2-----2------------------------------------------------------| 



D#|----------------------------------------------------------------| 
A#|----------------------------------------------------------------| 
F#|----------------2-------2-------2-------2-------4--4---4---4-4-4| 
C#|--------------2-------2-------2-------2-------6----6---6---6-6-6| 
G#|------0-----0-------2-------4-------5-------7------7---7---7-7-7| 
D#|---2-----2------------------------------------------------------| 


[Chorus]

D#|-----------------------------| 
A#|-----------------------------| 
F#|--2---4---6---7-/-9-9---9-9-9| Play this twice 
C#|--2---4---6---7-/-9-9---9-9-9| 
G#|--0---2---4---5-/-7-7---7-7-7| 
D#|-----------------------------| 


[Intro]



[Verse]



[Chorus]



(Heavy Bit)

D#|-----------------------------|
A#|-----------------------------|
F#|--X-X-5-X--4--4--4--4--4--4--| 
C#|--X-X-5-X--4--4--4--4--4--4--| 
G#|--0-0-3-0--2--2--2--2--2--2--| 
D#|-----------------------------|

[Solo]

D#|----------------------------------------------------------| 
A#|--------------------10-----------------------10--15-15----| 
F#|--11-9-11-9h11-11p9----9---11-9-11-9h11-11p9---------/----| 
C#|----------------------------------------------------------| 
G#|----------------------------------------------------------| 
D#|----------------------------------------------------------| 

D#|-----------------------------------------------------| 
A#|--14----12-----------------------10------------------| 
F#|---/-----/-----11-9-11-9h11-11p9----9---11-9-11-9h11-| 
C#|-----------------------------------------------------| 
G#|-----------------------------------------------------| 
D#|-----------------------------------------------------| 

D#|----------------------------------------| 
A#|-------10--17-17---15---17-19---21------| 
F#|--11p9---------/----/----/--/----/------| 
C#|----------------------------------------| 
G#|----------------------------------------| 
D#|----------------------------------------| 


[Chorus]

************************************

| h  Hammer-on
| p  Pull-off
| /  Slide up
| \  Slide down

************************************
Suggest correction
comments
print report bad tab
21 comments total. Showing first comments. show 1 bad comment
+1 reply
KirkHammettfan 10 wrote on January 3 2002, 12:00 am

This is pretty good. This song is pretty cool too.

+1 reply
limpbizkitrule 185 wrote on January 30 2002, 12:00 am

Kool tab man nice work.......

guest
You may want to rate the tab now too:
select rating
Please do not post tabs as comments. Select "correction" instead!