Oops, an error
Loading. Please wait.

Hero Of The Day Tab

version 3
version 3
71,625 views 27 this week
2 commentsread comments
1 2 3 4 5
worth learning
x 5
add to favorites
launch autoscroll
font size
0
reset
how to read this tab
guitar tuner
Tab Pro tools
  • play this tab
  • loop segment
  • change instrument
  • show fretboard
  • metronome
×
Best way to learn
"Hero Of The Day"
Autoscroll
slow
fast
+/-
esc
set tempo
stop
Contributor
This is my first tab here.
I think this is 100% correct, i hope you like it.
If you have any question Ask me (thinking_empire@hotmail.com)

Group: Metallica
Title: Hero Of The Day
Tab By: Andrés Vargas    (Colombia)

Intro: (clean)
|---------------------------------------------------------------------| 
|---------------------------------------------------------------------| 
|----------------2-------2-------2-------2-----1--4------4--1----4--1-| 
|--------------2-------2-------2-----0-2-----2------4--2------2-------| 
|------0-----0-------2-------4----------------------------------------| 
|---2-----2-----------------------------------------------------------| 


|-----------------------------------------------------------------------------------| 
|--------------------------------------------0--------------------------------------| 
|----------------2-------2-------2-------2---1---1--4-------4--1-----4--1-4h6p4--/1-| 
|--------------2-------2-------2-----0-2-----2--------4--2--------2-----------------| 
|------0-----0-------2-------4------------------------------------------------------| 
|---2-----2-------------------------------------------------------------------------| 

Verse: (clean)
|---------------------------------------------------------------------| 
|---------------------------------------------------------------------| 
|----------------2-------2-------2-------2-----1--4------4--1----4--1-| 
|--------------2-------2-------2-----0-2-----2------4--2------2-------| 
|------0-----0-------2-------4----------------------------------------| 
|---2-----2-----------------------------------------------------------| 

|---------------------------------------------------------------------| 
|---------------------------------------------------------------0-0-0-| 
|----------------2-------2-------2-------2------1--4------4--1--1-1-1-| 
|--------------2-------2-------2-----0-2-----2-------4--2-------2-2-2-| 
|------0-----0-------2-------4----------------------------------------| 
|---2-----2-----------------------------------------------------------| 

Distortion Part
|-------------------------------------------------------------------| 
|------------------------------------------------------0---0---0-0-0| 
|----------------2-------2-------2-------2------1--4---1---1---1-1-1| 
|--------------2-------2-------2-----0-2------2--------2---2---2-2-2| 
|------0-----0-------2-------4--------------------------------------|
|---2-----2---------------------------------------------------------| 

|-------------------------------------------------------------------| 
|------------------------------------------------------0---0---0-0-0| 
|----------------2-------2-------2-------2------1--4---1---1---1-1-1| 
|--------------2-------2-------2-----0-2------2--------2---2---2-2-2| 
|------0-----0-------2-------4--------------------------------------|
|---2-----2---------------------------------------------------------| 

Chorus. 
|----------------------------------------| 
|----------------------------------------| 
|-------------------------7-/-9-9---9-9-9| 
|---777---999---111111----7-/-9-9---9-9-9|   X 2
|---777---999---111111----5-/-7-7---7-7-7| 
|---555---777---9-9-9--------------------| 

Intro. 

Verse. 

Chorus. 


|---------------------------------------|
|---------------------------------------|
|---------------------------------------|
|--3-x-3-x-3-x-3-x-3-x-3-x-3---3---3---3|
|--3-x-3-x-3-x-3-x-3-x-3-x-3---3---3---3|
|--1-x-1-x-1-x-1-x-1-x-1-x-1---1---1---1|


Solo. 

|----------------------------------------------------------| 
|--------------------10-----------------------10--15-15----| 
|--11-9-11-9h11-11p9----9---11-9-11-9h11-11p9---------/----| 
|----------------------------------------------------------| 
|----------------------------------------------------------| 
|----------------------------------------------------------| 

|-----------------------------------------------------| 
|--14----12-----------------------10------------------| 
|---/-----/-----11-9-11-9h11-11p9----9---11-9-11-9h11-| 
|-----------------------------------------------------| 
|-----------------------------------------------------| 
|-----------------------------------------------------| 

|----------------------------------------| 
|-------10--17-17---15---17-19---21------| 
|--11p9---------/----/----/--/----/------| 
|----------------------------------------| 
|----------------------------------------| 
|----------------------------------------| 

Chorus.
comments
print report bad tab
2 comments total.
0 reply
skasolo wrote on November 18 2003, 12:00 am

its not 100% but its pretty close. good work

0 reply
zpocalypse wrote on October 10 2014, 05:23 am

E|---------------------------
B|---------------------------
G|-----------2---------------
D|-------0-2-----------------
A|---------------------------
E|---------------------------

For all parts of the song where it says to play this part, I hear it this way

E|---------------------------
B|---------------------------
G|-----------4---------------
D|-------0-2-----------------
A|---------------------------
E|---------------------------

I want to post or [tab]
guest
You may want to rate the tab now too:
select rating
Please do not post tabs as comments. Select "correction" instead!