Oops, an error
Loading. Please wait.

Hero Of The Day Live tab

version 6
version 6
133 views 1 this week
no commentswrite comment
1 2 3 4 5
3 more votes to show rating
add to favorites
×
Save as Personal and add changes to this tab that will be seen only by you. Learn more ›
×
You can save this tab as Personal to edit and correct it or add notes. All changes will be seen only by you. Learn more »
launch autoscroll
font size
0
reset
how to read this tab
guitar tuner
backing track
0:00
0:00
edit
Autoscroll
slow
fast
+/-
esc
set tempo
stop
Title: Hero Of The Day
Artist: Metallica
Album: Load
Words: Metallica
Music: Metallica

***************
Rhythm Guitars*
***************

Legend
L - tied note
x - dead note
h - hammer on/pull off
b - bend
s - slide
~ - vibrato
g - ghost note
> - accentuated note
t - trill
M - palm mute
. - staccato
P - popping (bass)
S - slapping (bass)
+ - tapping
W - wide vibrato
< - fade in
w - whammy bar
= - tremolo picking
v - brush up
^ - brush down
V - pick stroke up
n - pick stroke down

Intro
D#|----------------------------|----------------------------|
A#|----------------------------|----------------------------|
F#|----------------------------|--------2-----------2-------|
C#|----------------------------|-----2-----------2----------|
G#|--------------------0-------|--0-----------2-------------|
D#|-----------------2-----2----|----------------------------|


----------------------------|----------------------------|
----------------------------|----------------------------|
--------2-----------2-------|--------4-----------4-------|
-----2-----------2----------|-----6-----6L-6--------6L---|
--4-----------5-------------|--7--------------7----------|
----------------------------|----------------------------|


----------------------------|----------------------------|
----------------------------|----------------------------|
--------4-------------------|--------2-----------2-------|
--6--------6--6g------------|-----2-----------2----------|
-----7--------------0-------|--0-----------2-------------|
-----------------2-----2----|----------------------------|


----------------------------|----------------------------|
----------------------------|----------------------------|
--------2-----------2-------|--4--------4L-4--------4L---|
-----2-----------2----------|--4h-6-----------6----------|
--4-----------5-------------|--7-----7-----------7-------|
----------------------------|----------------------------|


----------------------------------------------------------------------------|
----------------------------------------------------------------------------|
--4--------------------------4--------4h-6h-4-------------------------------|
-----------6-----------------------------------6--------6h-------7----------|
--------------------7-------------------------------------------------------|
----------------------------------------------------------------------------|

Verse 1
----------------------------|----------------------------|
----------------------------|----------------------------|
--------2-----------2-------|--------2-----------2-------|
-----2-----------2----------|-----2-----------2----------|
--0-----------2-------------|--4-----------5-------------|
----------------------------|----------------------------|


----------------------------|----------------------------|
----------------------------|----------------------------|
--------4-----------4-------|--------4-------------------|
-----6-----6L-6--------6L---|--6--------6--6g------------|
--7--------------7----------|-----7--------------0-------|
----------------------------|-----------------2-----2----|


----------------------------|----------------------------|
----------------------------|----------------------------|
--------2-----------2-------|--------2-----------2-------|
-----2-----------2----------|-----2-----------2----------|
--0-----------2-------------|--4-----------5-------------|
----------------------------|----------------------------|


----------------------------|----------------------------|
----------------------------|----------------------------|
--4--------4L-4--------4----|--------4h-6--6h-4----------|
--4h-6-----------6----------|--------6-----6-----6-------|
--7-----7-----------7-------|-----7----------------------|
----------------------------|----------------------------|


----------------------------|----------------------------|
----------------------------|----------------------------|
--------2-----------2-------|--------2-----------2-------|
-----2-----------2----------|-----2-----------2----------|
--0-----------2-------------|--4-----------5-------------|
----------------------------|----------------------------|


----------------------------|----------------------------|
----------------------------|----------------------------|
----------------------------|----------------------------|
--4h-6--6--6-----6-----4----|--4h-6--6--6L-6-------------|
--7-----7--7-----7-----7----|--7-----7--7L-7-----0-------|
--0-----0--0-----0-----0----|--0-----0--0L-0--2-----2----|


----------------------------|----------------------------|
----------------------------|----------------------------|
--------2-----------2-------|--------2-----------2-------|
-----2-----------2----------|-----2-----------2----------|
--0-----------2-------------|--4-----------5-------------|
----------------------------|----------------------------|


----------------------------|
----------------------------|
----------------------------|
--4h-6--6--6-----6-----4----|
--7-----7--7-----7-----7----|
--0-----0--0-----0-----0----|


----------------------------------------------------|----------------|
----------------------------------------------------|----------------|
--------------4-----4-----4-----6L-6L-6b----4-------|-----2-----2----|
--4h----6-----6-----6-----6-----6L-6L-6b----4-------|-----2-----2----|
--7-------------------------------------------------|--0-----2-------|
--0-------------------------------------------------|----------------|


----------------|----------------------------|----------------------------|
----------------|----------------------------|----------------------------|
-----2-----2----|--7s-9g-9--9L-9--9--9--9----|--11s13g13-13-13s14g14~-----|
-----2-----2----|----------------------------|----------------------------|
--4-----5-------|--5s-7g-7--7L-7--7--7--7----|--9s-11g11-11-11s12g12~-----|
----------------|----------------------------|----------------------------|


----------------|----------------|----------------------------|
----------------|----------------|----------------------------|
-----2-----2----|-----2-----2----|--7s-9g-9--9L-9--9--9--9----|
-----2-----2----|-----2-----2----|----------------------------|
--0-----2-------|--4-----5-------|--5s-7g-7--7L-7--7--7--7----|
----------------|----------------|----------------------------|


----------------------------|----------------------------|
----------------------------|----------------------------|
--11s13g13-13-13s14g14~-----|--------2-----------2-------|
----------------------------|-----2-----------2----------|
--9s-11g11-11-11s12g12~-----|--0-----------2-------------|
----------------------------|----------------------------|


----------------------------|----------------------------|
----------------------------|----------------------------|
--------2-----------2-------|--------4-----------4-------|
-----2-----------2----------|-----6-----6L-6--------6L---|
--4-----------5-------------|--7--------------7----------|
----------------------------|----------------------------|


----------------------------|----------------------------|
----------------------------|----------------------------|
--------4-------------------|--------2-----------2-------|
--6--------6--6g------------|-----2-----------2----------|
-----7--------------0-------|--0-----------2-------------|
-----------------2-----2----|----------------------------|


----------------------------|----------------------------|
----------------------------|----------------------------|
--------2-----------2-------|--4--------4L-4--------4L---|
-----2-----------2----------|--4h-6-----------6----------|
--4-----------5-------------|--7-----7-----------7-------|
----------------------------|----------------------------|

                              Verse 2
----------------------------|----------------------------|
----------------------------|----------------------------|
--4-----4-----------4h-6----|--------2-----------2-------|
-----------6L-6-----6-------|-----2-----------2----------|
-----7-----------7----------|--0-----------2-------------|
----------------------------|----------------------------|


----------------------------|----------------------------|
----------------------------|----------------------------|
--------2-----------2-------|--------4-----------4-------|
-----2-----------2----------|-----6-----6L-6--------6L---|
--4-----------5-------------|--7--------------7----------|
----------------------------|----------------------------|


----------------------------|----------------------------|
----------------------------|----------------------------|
--------4-------------------|--------2-----------2-------|
--6--------6--6g------------|-----2-----------2----------|
-----7--------------0-------|--0-----------2-------------|
-----------------2-----2----|----------------------------|


----------------------------|----------------------------|
----------------------------|----------------------------|
--------2-----------2-------|--4--------4L-4--------4----|
-----2-----------2----------|--4h-6-----------6----------|
--4-----------5-------------|--7-----7-----------7-------|
----------------------------|----------------------------|


----------------------------|----------------------------|
----------------------------|----------------------------|
--------4h-6--6h-4----------|--------2-----------2-------|
--------6-----6-----6-------|-----2-----------2----------|
-----7----------------------|--0-----------2-------------|
----------------------------|----------------------------|


----------------------------|----------------------------|
----------------------------|----------------------------|
--------2-----------2-------|----------------------------|
-----2-----------2----------|--4h-6--6--6-----6-----4----|
--4-----------5-------------|--7-----7--7-----7-----7----|
----------------------------|--0-----0--0-----0-----0----|


----------------------------|----------------------------|
----------------------------|----------------------------|
----------------------------|--------2-----------2-------|
--4h-6--6--6L-6-------------|-----2-----------2----------|
--7-----7--7L-7-----0-------|--0-----------2-------------|
--0-----0--0L-0--2-----2----|----------------------------|


----------------------------|----------------------------|
----------------------------|----------------------------|
--------2-----------2-------|----------------------------|
-----2-----------2----------|--4h-6--6--6-----6-----4----|
--4-----------5-------------|--7-----7--7-----7-----7----|
----------------------------|--0-----0--0-----0-----0----|


----------------------------------------------------|----------------|
----------------------------------------------------|----------------|
--------------4-----4-----4-----6L-6L-6b----4-------|-----2-----2----|
--4h----6-----6-----6-----6-----6L-6L-6b----4-------|-----2-----2----|
--7-------------------------------------------------|--0-----2-------|
--0-------------------------------------------------|----------------|


----------------|----------------------------|----------------------------|
----------------|----------------------------|----------------------------|
-----2-----2----|--7s-9g-9--9L-9--9--9--9----|--11s13g13-13-13s14g14~-----|
-----2-----2----|----------------------------|----------------------------|
--4-----5-------|--5s-7g-7--7L-7--7--7--7----|--9s-11g11-11-11s12g12~-----|
----------------|----------------------------|----------------------------|


----------------|----------------|----------------------------|
----------------|----------------|----------------------------|
-----2-----2----|-----2-----2----|--7s-9g-9--9L-9--9--9--9----|
-----2-----2----|-----2-----2----|----------------------------|
--0-----2-------|--4-----5-------|--5s-7g-7--7L-7--7--7--7----|
----------------|----------------|----------------------------|


----------------------------------------------------|
----------------------------------------------------|
--11s---13g---13----13----13----x--x----------------|
----------------------------------------------------|
--9s----11g---11----11----11----x--x----------------|
--------------------------------------17s-----------|

Chorus
----------------------------|
----------------------------|
----------------------------|
--4--4-----4-----4-----4----|
--4--4-----4-----4-----4----|
--2--2-----2-----2-----2----|


----------------------------------------------------|
----------------------------------------------------|
----------------------------------------------------|
--------4-----------4-------------------------------|
--------4-----------4-----------4--4--4-----4--4----|
--------2-----------2-----------0--2--3-----0--2----|


----------------------------|
----------------------------|
----------------------------|
-----4-----4-----4-----4----|
--4--4-----4-----4-----4----|
--3--2-----2-----2-----2----|


----------------------------------------------------|
----------------------------------------------------|
----------------------------------------------------|
--------4-----------4-------------------------------|
--------4-----------4-----------4--4--4-----4--4----|
--------2-----------2-----------0--2--3-----0--2----|


----------------------------|
----------------------------|
----------------------------|
-----4-----4-----4-----4----|
--4--4-----4-----4-----4----|
--3--2-----2-----2-----2----|


----------------------------------------------------|
----------------------------------------------------|
----------------------------------------------------|
--------4-----------4-------------------------------|
--------4-----------4-----------4--4--4-----4--4----|
--------2-----------2-----------0--2--3-----0--2----|


----------------------------|
----------------------------|
----------------------------|
-----4-----4-----4-----4----|
--4--4-----4-----4-----4----|
--3--2-----2-----2-----2----|


----------------------------------------------------|
----------------------------------------------------|
----------------------------------------------------|
--------4-----------4-------------------------------|
--------4-----------4-----------4--4--4-----4--4----|
--------2-----------2-----------0--2--3-----0--2----|


----------------------------|
----------------------------|
----------------------------|
-----4-----4-----4-----4----|
--4--4-----4-----4-----4----|
--3--2-----2-----2-----2----|


----------------------------------------------------|
----------------------------------------------------|
----------------------------------------------------|
--------4-----------4-------------------------------|
--------4-----------4-----------4--4--4-----4--4----|
--------2-----------2-----------0--2--3-----0--2----|

                                                          Guitar Solo
----------------------------|----------------------------|----------|
----------------------------|----------------------------|----------|
----------------------------|----------------------------|--6--7----|
-----4-----4-----4-----4----|-----4-----4----------------|----------|
--4--4-----4-----4-----4----|-----4-----4--------0-------|--4--5----|
--3--2-----2-----2-----2----|-----2-----2-----2-----2----|----------|


--------------------------------------------------------------------------------
--------------------------------------------------------------------------------
--------------9-----------9s----------11g---------11----------------------------
--------------------------------------------------------------------------------
--------------7-----------7s----------9g----------9-----------------------------
--------------------------------------------------------------------------------

                                  
-----------------------|-------|-------|----------|
-----------------------|-------|-------|----------|
------11s13------------|--9L---|--9----|--6--7----|
-----------------------|-------|-------|----------|
------9s-11------------|--7L---|--7----|--4--5----|
-----------------------|-------|-------|----------|


--------------------------------------------------------------------------------
--------------------------------------------------------------------------------
--------------9-----------9s----------11g---------11----------------------------
--------------------------------------------------------------------------------
--------------7-----------7s----------9g----------9-----------------------------
--------------------------------------------------------------------------------

                                        verse 3
-----------------------|-------|-------|----------------|----------------|
-----------------------|-------|-------|----------------|----------------|
------11s13------------|--9L---|--9----|-----2-----2----|-----2-----2----|
-----------------------|-------|-------|-----2-----2----|-----2-----2----|
------9s-11------------|--7L---|--7----|--0-----2-------|--4-----5-------|
-----------------------|-------|-------|----------------|----------------|


----------------------------|----------------------------|----------------|
----------------------------|----------------------------|----------------|
--7s-9g-9--9L-9--9--9--9----|--11s13g13-13-13s14g14~-----|-----2-----2----|
----------------------------|----------------------------|-----2-----2----|
--5s-7g-7--7L-7--7--7--7----|--9s-11g11-11-11s12g12~-----|--0-----2-------|
----------------------------|----------------------------|----------------|


----------------|----------------------------|
----------------|----------------------------|
-----2-----2----|--7s-9g-9--9L-9--9--9--9----|
-----2-----2----|----------------------------|
--4-----5-------|--5s-7g-7--7L-7--7--7--7----|
----------------|----------------------------|


----------------------------------------------------|
----------------------------------------------------|
--11s---13g---13----13----13----x--x----------------|
----------------------------------------------------|
--9s----11g---11----11----11----x--x----------------|
--------------------------------------17s-----------|

Chorus
----------------------------|
----------------------------|
----------------------------|
--4--4-----4-----4-----4----|
--4--4-----4-----4-----4----|
--2--2-----2-----2-----2----|


----------------------------------------------------|
----------------------------------------------------|
----------------------------------------------------|
--------4-----------4-------------------------------|
--------4-----------4-----------4--4--4-----4--4----|
--------2-----------2-----------0--2--3-----0--2----|


----------------------------|
----------------------------|
----------------------------|
-----4-----4-----4-----4----|
--4--4-----4-----4-----4----|
--3--2-----2-----2-----2----|


----------------------------------------------------|
----------------------------------------------------|
----------------------------------------------------|
--------4-----------4-------------------------------|
--------4-----------4-----------4--4--4-----4--4----|
--------2-----------2-----------0--2--3-----0--2----|


----------------------------|
----------------------------|
----------------------------|
-----4-----4-----4-----4----|
--4--4-----4-----4-----4----|
--3--2-----2-----2-----2----|


----------------------------------------------------|
----------------------------------------------------|
----------------------------------------------------|
--------4-----------4-------------------------------|
--------4-----------4-----------4--4--4-----4--4----|
--------2-----------2-----------0--2--3-----0--2----|


----------------------------|
----------------------------|
----------------------------|
-----4-----4-----4-----4----|
--4--4-----4-----4-----4----|
--3--2-----2-----2-----2----|


----------------------------------------------------|
----------------------------------------------------|
----------------------------------------------------|
--------4-----------4-------------------------------|
--------4-----------4-----------4--4--4-----4--4----|
--------2-----------2-----------0--2--3-----0--2----|


----------------------------|
----------------------------|
----------------------------|
-----4-----4-----4-----4----|
--4--4-----4-----4-----4----|
--3--2-----2-----2-----2----|


----------------------------------------------------|
----------------------------------------------------|
----------------------------------------------------|
--------4-----------4-------------------------------|
--------4-----------4-----------4--4--4-----4--4----|
--------2-----------2-----------0--2--3-----0--2----|


----------------------------|
----------------------------|
----------------------------|
-----4-----4-----4-----4----|
--4--4-----4-----4-----4----|
--3--2-----2-----2-----2----|


----------------------------------------------------|
----------------------------------------------------|
----------------------------------------------------|
--------4-----------4-------------------------------|
--------4-----------4-----------4--4--4-----4--4----|
--------2-----------2-----------0--2--3-----0--2----|

Outro
----------------------------|
----------------------------|
----------------------------|
-----4-----4-----4-----4----|
--4--4-----4-----4-----4----|
--3--2-----2-----2-----2----|


----------------------------------------------------|
----------------------------------------------------|
----------------------------------------------------|
--------4-----------4-------------------------------|
--------4-----------4-----------4--4--4-----4--4----|
--------2-----------2-----------0--2--3-----0--2----|


----------------------------|
----------------------------|
----------------------------|
-----4-----4-----4-----4----|
--4--4-----4-----4-----4----|
--3--2-----2-----2-----2----|


----------------------------------------------------|
----------------------------------------------------|
----------------------------------------------------|
--------4-----------4-------------------------------|
--------4-----------4-----------4--4--4-----4--4----|
--------2-----------2-----------0--2--3-----0--2----|


----------------------------|
----------------------------|
----------------------------|
-----4-----4-----4-----4----|
--4--4-----4-----4-----4----|
--3--2-----2-----2-----2----|


----------------------------------------------------|
----------------------------------------------------|
----------------------------------------------------|
--------2--2--------2--2--------2--2--------2--2----|
--------2--2--------2--2--------2--2--------2--2----|
--------4--4--------4--4--------4--4--------4--4----|


----------------------------------------------------|
----------------------------------------------------|
----------------------------------------------------|
--------2--2--------2--2--------2--2--------2--2----|
--------2--2--------2--2--------2--2--------2--2----|
--------5--5--------5--5--------5--5--------5--5----|


----------------------------------------------------|
----------------------------------------------------|
--------4--4--------4--4----------------------------|
--------4--4--------4--4----------------------------|
--------2--2--------2--2----------------------------|
--------------------------------0-----3-----2-------|


----------------------------|
----------------------------|
----------------------------|
-----4-----4-----4-----4----|
--4--4-----4-----4-----4----|
--3--2-----2-----2-----2----|


----------------------------------------------------|
----------------------------------------------------|
----------------------------------------------------|
--------4-----------4-------------------------------|
--------4-----------4-----------4--4--4-----4--4----|
--------2-----------2-----------0--2--3-----0--2----|


----------------------------|
----------------------------|
----------------------------|
-----4-----4-----4-----4----|
--4--4-----4-----4-----4----|
--3--2-----2-----2-----2----|


----------------------------------------------------|
----------------------------------------------------|
----------------------------------------------------|
--------4-----------4-------------------------------|
--------4-----------4-----------4--4--4-----4--4----|
--------2-----------2-----------0--2--3-----0--2----|


----------------------------|
----------------------------|
----------------------------|
-----4-----4-----4-----4----|
--4--4-----4-----4-----4----|
--3--2-----2-----2-----2----|


----------------------------------------------------|
----------------------------------------------------|
----------------------------------------------------|
--------2--2--------2--2--------2--2--------2--2----|
--------2--2--------2--2--------2--2--------2--2----|
--------4--4--------4--4--------4--4--------4--4----|


----------------------------------------------------|
----------------------------------------------------|
----------------------------------------------------|
--------2--2--------2--2--------2--2--------2--2----|
--------2--2--------2--2--------2--2--------2--2----|
--------5--5--------5--5--------5--5--------5--5----|


----------------------------------------------------|
----------------------------------------------------|
--------4--4--------4--4----------------------------|
--------4--4--------4--4----------------------------|
--------2--2--------2--2----------------------------|
--------------------------------0-----3-----2-------|


----------------------------|-------|-------||
----------------------------|-------|-------||
----------------------------|-------|-------||
-----------4L-4L------------|--4L---|--4----||
-----------4L-4L------------|--4L---|--4----||
--3--2-----2L-2L------------|--2L---|--2----||


            
            
Suggest correction
Creating personal tab
Creating personal tab
You can edit any tab online and save it as your Personal.

You can edit, replace or remove any tab part or add personal notes – all changes will be seen only by you.

Personal tabs can be accessed anytime from any device, even offline.
Learn more »
Give kudos to tab author, rate the tab!
1 2 3 4 5
comments
print report bad tab
guest
You may want to rate the tab now too:
select rating
Wanna post a correction for this tab? Suggest correction