Oops, an error
Loading. Please wait.

Hit The Lights Tab

version 1
version 1

Whole song

Interactive

278,214 views 348 this week
28 commentsread comments
1 2 3 4 5
excellent!
x 67
add to favorites
launch autoscroll
font size
0
reset
how to read this tab
guitar tuner
Autoscroll
slow
fast
+/-
esc
set tempo
stop
Help us to improve Ultimate-Guitar.com Take our survey!
×
Author
Title: Hit The Lights
Artist: Metallica
Words and Music: Hetfield, Ulrich
Albun: Kill´Em all
By: Sepultura5000@hotmail.com


[Intro]

Guitar 1

e||------------------|----------------------|------------|------------------|
B||------------------|----------------------|------------|------------------|
G||------------------|----------------------|------------|------------------|
D||--2---------------|--2----2----2----2----|--2----2----|--2---------------|
A||--2---------------|--2----2----2----2----|--2----2----|--2---------------|
E||--0---------------|--0----0----0----0----|--0----0----|--0---------------|
//

e|------------------|-----------------|------------------|
B|------------------|-----------------|------------------|
G|------------------|-----------------|------------------|
D|------------------|-----------------|------------------|
A|--4---------------|-----------------|--x\--------------|
E|--2---------------|-----------------|--x\--------------|
//


e|-----------------------------|-------------------------------|
B|-----------------------------|-------------------------------|
G|-----------------5--7-7---0--|-------------------------------|
D|--5--------------5--7-7---0--|--5--------------7p5---5-------|
A|--0--0-0-0-0-0-0-------------|--0--0-0-0-0-0-0-----7----6-7--|
E|-----------------------------|-------------------------------|


e|------------------------------|----------------------------|
B|------------------------------|----------------------------|
G|-----------------5--7-7--0-0--|--5-------------------7b----|
D|--5--------------5--7-7--0-0--|--5-------------------------|
A|--0--0-0-0-0-0-0--------------|-----0-0-0-0-0-0-6h7--------|
E|------------------------------|----------------------------|


e|-----------------------------|-------------------------------|
B|-----------------------------|-------------------------------|
G|-----------------5--7-7---0--|--5----------------------------|
D|--5--------------5--7-7---0--|--5--------------7p5---5-------|
A|--0--0-0-0-0-0-0-------------|-----0-0-0-0-0-0-----7----6-7--|
E|-----------------------------|-------------------------------|


e|------------------------------|----------------------------------|
B|------------------------------|----------------------------------|
G|-----------------5--7-7--0-0--|-----------------------------<5>--|
D|--5--------------5--7-7--0-0--|--5----------------<5>---<5>------|
A|--0--0-0-0-0-0-0--------------|--0--0-0-0-0-0-<5>----------------|
E|------------------------------|----------------------------------|


e|------------------------------|-------------------------------|
B|------------------------------|-------------------------------|
G|-----------------5--7-7--0-0--|-------------------------------|
D|--5--------------5--7-7--0-0--|--5--------------7p5---5-------|
A|--0--0-0-0-0-0-0--------------|--0--0-0-0-0-0-0-----7----6-7--|
E|------------------------------|-------------------------------|


e|------------------------------|-------------------------------|
B|------------------------------|-------------------------------|
G|-----------------5--7-7--0-0--|--5----------------------------|
D|--5--------------5--7-7--0-0--|--5--------------7p5---5-------|
A|--0--0-0-0-0-0-0--------------|-----0-0-0-0-0-0-----7----6-7--|
E|------------------------------|-------------------------------|


[Verses]

e|----------------------|-----------------------|------------------------------|
B|----------------------|-----------------------|------------------------------|
G|--7--7----------------|--7--7-----------------|-----------------5--7-7--0-0--|
D|--7--7------5--5------|--7--7-----------------|--5--------------5--7-7--0-0--|
A|--5--5------5--5------|--5--5------3---2------|--0--0-0-0-0-0-0--------------|
E|------------3--3------|--------------------3--|------------------------------|
No life till leather...


e|-------------------------------|------------------------------|
B|-------------------------------|------------------------------|
G|-------------------------------|-----------------5--7-7--0-0--|
D|--5--------------7p5---5-------|--5--------------5--7-7--0-0--|
A|--0--0-0-0-0-0-0-----7----6-7--|--0--0-0-0-0-0-0--------------|
E|-------------------------------|------------------------------|


e|-------------------------------|----------------------|-----------------------|
B|-------------------------------|----------------------|-----------------------|
G|--5----------------------------|--7--7----------------|--7--7-----------------|
D|--5--------------7p5---5-------|--7--7------5--5------|--7--7-----------------|
A|-----0-0-0-0-0-0-----7----6-7--|--5--5------5--5------|--5--5------3---2------|
E|-------------------------------|------------3--3------|--------------------3--|


e|------------------------------|-------------------------------|
B|------------------------------|-------------------------------|
G|-----------------5--7-7--0-0--|-------------------------------|
D|--5--------------5--7-7--0-0--|--5--------------7p5---5-------|
A|--0--0-0-0-0-0-0--------------|--0--0-0-0-0-0-0-----7----6-7--|
E|------------------------------|-------------------------------|


e|--------------------|--------------------------------|-----------------------|
B|--------------------|--------------------------------|-----------------------|
G|--------------------|--------------------------------|-----------------------|
D|-----9--------------|--------------------------------|--2----2------2---2----|
A|-----7--------------|-----------------3----2---------|--0----0------0---0----|
E|--0-----------------|--3----2----3--------------3----|------------3----------|


e|---------------------|-----------------------|---------------------|
B|---------------------|-----------------------|---------------------|
G|---------------------|-----------------------|---------------------|
D|----2---2----5-------|--2----2------2---2----|----2---2----5-------|
A|----0---0----3---5---|--0----0------0---0----|----0---0----3---5---|
E|--3--------------3---|------------3----------|--3--------------3---|


e|-----------------------|---------------------|-----------------------|
B|-----------------------|---------------------|-----------------------|
G|-----------------------|---------------------|-----------------------|
D|--2----2------2---2----|----2---2----5-------|--2----2------2---2----|
A|--0----0------0---0----|----0---0----3---5---|--0----0------0---0----|
E|------------3----------|--3--------------3---|------------3----------|


e|-----------------|------------------------------|
B|-----------------|------------------------------|
G|-----------------|-----------------5--7-7--0-0--|
D|-----------------|--5--------------5--7-7--0-0--|
A|-----------------|--0--0-0-0-0-0-0--------------|
E|-----------------|------------------------------|


e|-------------------------------|------------------------------|
B|-------------------------------|------------------------------|
G|-------------------------------|-----------------5--7-7--0-0--|
D|--5--------------7p5---5-------|--5--------------5--7-7--0-0--|
A|--0--0-0-0-0-0-0-----7----6-7--|--0--0-0-0-0-0-0--------------|
E|-------------------------------|------------------------------|


e|-------------------------------|----------------------|-----------------------|
B|-------------------------------|----------------------|-----------------------|
G|--5----------------------------|--7--7----------------|--7--7-----------------|
D|--5--------------7p5---5-------|--7--7------5--5------|--7--7-----------------|
A|-----0-0-0-0-0-0-----7----6-7--|--5--5------5--5------|--5--5------3---2------|
E|-------------------------------|------------3--3------|--------------------3--|


e|------------------------------|-------------------------------|
B|------------------------------|-------------------------------|
G|-----------------5--7-7--0-0--|-------------------------------|
D|--5--------------5--7-7--0-0--|--5--------------7p5---5-------|
A|--0--0-0-0-0-0-0--------------|--0--0-0-0-0-0-0-----7----6-7--|
E|------------------------------|-------------------------------|


e|------------------------------|-------------------------------|
B|------------------------------|-------------------------------|
G|-----------------5--7-7--0-0--|--5----------------------------|
D|--5--------------5--7-7--0-0--|--5--------------7p5---5-------|
A|--0--0-0-0-0-0-0--------------|-----0-0-0-0-0-0-----7----6-7--|
E|------------------------------|-------------------------------|


e|----------------------|-----------------------|------------------------------|
B|----------------------|-----------------------|------------------------------|
G|--7--7----------------|--7--7-----------------|-----------------5--7-7--0-0--|
D|--7--7------5--5------|--7--7-----------------|--5--------------5--7-7--0-0--|
A|--5--5------5--5------|--5--5------3---2------|--0--0-0-0-0-0-0--------------|
E|------------3--3------|--------------------3--|------------------------------|


e|-------------------------------|--------------------|
B|-------------------------------|--------------------|
G|-------------------------------|--------------------|
D|--5--------------7p5---5-------|-----9--------------|
A|--0--0-0-0-0-0-0-----7----6-7--|-----7--------------|
E|-------------------------------|--0-----------------|


e|--------------------------------|-----------------------|---------------------|
B|--------------------------------|-----------------------|---------------------|
G|--------------------------------|-----------------------|---------------------|
D|--------------------------------|--2----2------2---2----|----2---2----5-------|
A|-----------------3----2---------|--0----0------0---0----|----0---0----3---5---|
E|--3----2----3--------------3----|------------3----------|--3--------------3---|


e|-----------------------|---------------------|-----------------------|
B|-----------------------|---------------------|-----------------------|
G|-----------------------|---------------------|-----------------------|
D|--2----2------2---2----|----2---2----5-------|--2----2------2---2----|
A|--0----0------0---0----|----0---0----3---5---|--0----0------0---0----|
E|------------3----------|--3--------------3---|------------3----------|


e|---------------------|-----------------------|----------------|
B|---------------------|-----------------------|----------------|
G|---------------------|-----------------------|----------------|
D|----2---2----5-------|--2----2------2---2----|----------------|
A|----0---0----3---5---|--0----0------0---0----|----------------|
E|--3--------------3---|------------3----------|----------------|


e|------------------------------|-------------------------------|
B|------------------------------|-------------------------------|
G|-----------------5--7-7--0-0--|-------------------------------|
D|--5--------------5--7-7--0-0--|--5--------------7p5---5-------|
A|--0--0-0-0-0-0-0--------------|--0--0-0-0-0-0-0-----7----6-7--|
E|------------------------------|-------------------------------|


e|------------------------------|-------------------------------|
B|------------------------------|-------------------------------|
G|-----------------5--7-7--0-0--|--5----------------------------|
D|--5--------------5--7-7--0-0--|--5--------------7p5---5-------|
A|--0--0-0-0-0-0-0--------------|-----0-0-0-0-0-0-----7----6-7--|
E|------------------------------|-------------------------------|


e|----------------------|-----------------------|------------------------------|
B|----------------------|-----------------------|------------------------------|
G|--7--7----------------|--7--7-----------------|-----------------5--7-7--0-0--|
D|--7--7------5--5------|--7--7-----------------|--5--------------5--7-7--0-0--|
A|--5--5------5--5------|--5--5------3---2------|--0--0-0-0-0-0-0--------------|
E|------------3--3------|--------------------3--|------------------------------|


e|-------------------------------|------------------------------|
B|-------------------------------|------------------------------|
G|-------------------------------|-----------------5--7-7--0-0--|
D|--5--------------7p5---5-------|--5--------------5--7-7--0-0--|
A|--0--0-0-0-0-0-0-----7----6-7--|--0--0-0-0-0-0-0--------------|
E|-------------------------------|------------------------------|


e|-------------------------------|----------------------|-----------------------|
B|-------------------------------|----------------------|-----------------------|
G|--5----------------------------|--7--7----------------|--7--7-----------------|
D|--5--------------7p5---5-------|--7--7------5--5------|--7--7-----------------|
A|-----0-0-0-0-0-0-----7----6-7--|--5--5------5--5------|--5--5------3---2------|
E|-------------------------------|------------3--3------|--------------------3--|


e|------------------------------|-------------------------------|
B|------------------------------|-------------------------------|
G|-----------------5--7-7--0-0--|-------------------------------|
D|--5--------------5--7-7--0-0--|--5--------------7p5---5-------|
A|--0--0-0-0-0-0-0--------------|--0--0-0-0-0-0-0-----7----6-7--|
E|------------------------------|-------------------------------|


e|--------------------|--------------------------------|-----------------------|
B|--------------------|--------------------------------|-----------------------|
G|--------------------|--------------------------------|-----------------------|
D|-----9--------------|--------------------------------|--2----2------2---2----|
A|-----7--------------|-----------------3----2---------|--0----0------0---0----|
E|--0-----------------|--3----2----3--------------3----|------------3----------|


e|---------------------|-----------------------|---------------------|
B|---------------------|-----------------------|---------------------|
G|---------------------|-----------------------|---------------------|
D|----2---2----5-------|--2----2------2---2----|----2---2----5-------|
A|----0---0----3---5---|--0----0------0---0----|----0---0----3---5---|
E|--3--------------3---|------------3----------|--3--------------3---|


e|-----------------------|---------------------|-----------------------|
B|-----------------------|---------------------|-----------------------|
G|-----------------------|---------------------|-----------------------|
D|--2----2------2---2----|----2---2----5-------|--2----2------2---2----|
A|--0----0------0---0----|----0---0----3---5---|--0----0------0---0----|
E|------------3----------|--3--------------3---|------------3----------|


e|---------------------|--------------------||------------------------|
B|---------------------|--------------------||------------------------|
G|---------------------|-----------4--------||*------------------5----|
D|----2---2----5-------|--2--------5--------||*--7---7---7---7---5----|
A|----0---0----3---5---|--0--------5--------||---0---0---0---0--------|
E|--3--------------3---|-----------3--------||------------------------|

 3x
e|-----------------------|-----------------------|-----------------------||
B|-----------------------|-----------------------|-----------------------||
G|------------------7----|------------------5----|----------------------*||
D|--7---7---7---7---7----|--7---7---7---7---5----|--7---5---------------*||
A|--0---0---0---0--------|--0---0---0---0--------|----------7--6--5------||
E|-----------------------|-----------------------|-------------------8---||


e|-----------------------|-----------------------|-----------------------|
B|-----------------------|-----------------------|-----------------------|
G|--4---4---4---4---7----|--4---4---4---4---9----|--4---4---4---4---7----|
D|--4---4---4---4---7----|--4---4---4---4---9----|--4---4---4---4---7----|
A|--2---2---2---2---5----|--2---2---2---2---7----|--2---2---2---2---5----|
E|-----------------------|-----------------------|-----------------------|


e|-----------------------|-----------------------|-----------------------|
B|-----------------------|-----------------------|-----------------------|
G|-----------------------|--4---4---4---4---7----|--4---4---4---4---9----|
D|--9---7----------------|--4---4---4---4---7----|--4---4---4---4---9----|
A|----------9--8--7------|--2---2---2---2---5----|--2---2---2---2---7----|
E|-------------------10--|-----------------------|-----------------------|


e|-----------------------|-----------------------|-----------------------|
B|-----------------------|-----------------------|-----------------------|
G|--4---4---4---4---7----|-----------------------|--4---4---4---4---7----|
D|--4---4---4---4---7----|--9---7----------------|--4---4---4---4---7----|
A|--2---2---2---2---5----|----------9--8--7------|--2---2---2---2---5----|
E|-----------------------|-------------------10--|-----------------------|


e|-----------------------|-----------------------|-----------------------|
B|-----------------------|-----------------------|-----------------------|
G|--4---4---4---4---9----|--4---4---4---4---7----|-----------------------|
D|--4---4---4---4---9----|--4---4---4---4---7----|--9---7----------------|
A|--2---2---2---2---7----|--2---2---2---2---5----|----------9--8--7------|
E|-----------------------|-----------------------|-------------------10--|


e|-----------------------|-----------------------|-----------------------|
B|-----------------------|-----------------------|-----------------------|
G|--4---4---4---4---7----|--4---4---4---4---9----|--4---4---4---4---7----|
D|--4---4---4---4---7----|--4---4---4---4---9----|--4---4---4---4---7----|
A|--2---2---2---2---5----|--2---2---2---2---7----|--2---2---2---2---5----|
E|-----------------------|-----------------------|-----------------------|


e|-----------------------|-----------------------|-----------------------|
B|-----------------------|-----------------------|-----------------------|
G|-----------------------|--4---4---4---4---7----|--4---4---4---4---9----|
D|--9---7----------------|--4---4---4---4---7----|--4---4---4---4---9----|
A|----------9--8--7------|--2---2---2---2---5----|--2---2---2---2---7----|
E|-------------------10--|-----------------------|-----------------------|


e|-----------------------|-----------------------|-----------------------|
B|-----------------------|-----------------------|-----------------------|
G|--4---4---4---4---7----|-----------------------|--4---4---4---4---7----|
D|--4---4---4---4---7----|--9---7----------------|--4---4---4---4---7----|
A|--2---2---2---2---5----|----------9--8--7------|--2---2---2---2---5----|
E|-----------------------|-------------------10--|-----------------------|


e|-----------------------|-----------------------|-----------------------|
B|-----------------------|-----------------------|-----------------------|
G|--4---4---4---4---9----|--4---4---4---4---7----|-----------------------|
D|--4---4---4---4---9----|--4---4---4---4---7----|--9---7----------------|
A|--2---2---2---2---7----|--2---2---2---2---5----|----------9--8--7------|
E|-----------------------|-----------------------|-------------------10--|


e|-----------------------|-----------------------|-----------------------|
B|-----------------------|-----------------------|-----------------------|
G|--4---4---4---4---7----|--4---4---4---4---9----|--4---4---4---4---7----|
D|--4---4---4---4---7----|--4---4---4---4---9----|--4---4---4---4---7----|
A|--2---2---2---2---5----|--2---2---2---2---7----|--2---2---2---2---5----|
E|-----------------------|-----------------------|-----------------------|


e|-----------------------|-----------------------|-----------------------|
B|-----------------------|-----------------------|-----------------------|
G|-----------------------|--4---4---4---4---7----|--4---4---4---4---9----|
D|--9---7----------------|--4---4---4---4---7----|--4---4---4---4---9----|
A|----------9--8--7------|--2---2---2---2---5----|--2---2---2---2---7----|
E|-------------------10--|-----------------------|-----------------------|


e|-----------------------|-----------------------|-----------------------|
B|-----------------------|-----------------------|-----------------------|
G|--4---4---4---4---7----|-----------------------|------------------5----|
D|--4---4---4---4---7----|--9---7----------------|--7---7---7---7---5----|
A|--2---2---2---2---5----|----------9--8--7------|--7---7---7---7---3----|
E|-----------------------|-------------------10--|--5---5---5---5--------|


e|-----------------------|-----------------------|----------------------|
B|-----------------------|-----------------------|----------------------|
G|------------------7----|------------------5----|----------------------|
D|--7---7---7---7---7----|--7---7---7---7---5----|--7---5---------------|
A|--7---7---7---7---5----|--7---7---7---7---3----|----------7--6--5-----|
E|--5---5---5---5--------|--5---5---5---5--------|-------------------8--|


e|-----------------------|-----------------------|-----------------------|
B|-----------------------|-----------------------|-----------------------|
G|------------------5----|------------------7----|------------------5----|
D|--7---7---7---7---5----|--7---7---7---7---7----|--7---7---7---7---5----|
A|--7---7---7---7---3----|--7---7---7---7---5----|--7---7---7---7---3----|
E|--5---5---5---5--------|--5---5---5---5--------|--5---5---5---5--------|


e|----------------------|----------------------|----------------------|
B|----------------------|----------------------|----------------------|
G|----------------------|----------------------|----------------------|
D|--7---5---------------|--7---5---------------|--7---5---------------|
A|----------7--6--5-----|----------7--6--5-----|----------7--6--5-----|
E|-------------------8--|-------------------8--|-------------------8--|


e|------------------------------------------------------------------|
B|------------------------------------------------------------------|
G|--2-2-2-2-2-2-2-2-2-2-2-2-2-2-2-2-2-2-2-2-2-2-2-2-2-2-2-2-2-2-2-2-|
D|--2-2-2-2-2-2-2-2-2-2-2-2-2-2-2-2-2-2-2-2-2-2-2-2-2-2-2-2-2-2-2-2-|
A|--0-0-0-0-0-0-0-0-0-0-0-0-0-0-0-0-0-0-0-0-0-0-0-0-0-0-0-0-0-0-0-0-|
E|------------------------------------------------------------------|


e|------------------------------------------------------------------|
B|------------------------------------------------------------------|
G|--2-2-2-2-2-2-2-2-2-2-2-2-2-2-2-2-2-2-2-2-2-2-2-2-2-2-2-2-2-2-2-2-|
D|--2-2-2-2-2-2-2-2-2-2-2-2-2-2-2-2-2-2-2-2-2-2-2-2-2-2-2-2-2-2-2-2-|
A|--0-0-0-0-0-0-0-0-0-0-0-0-0-0-0-0-0-0-0-0-0-0-0-0-0-0-0-0-0-0-0-0-|
E|------------------------------------------------------------------|


e|-----------------|----------------|-------------------||
B|-----------------|----------------|-------------------||
G|--2--------------|----------------|--2----2-----------||
D|--2--------------|----------------|--2----2-----------||
A|--0--------------|----------------|--0----0-----------||
E|-----------------|----------------|-------------------||


Guitar 2:

[First solo]

e|-----17----------------------17-------20p17-------|
B|--------20p17----17-20p17-------20p17-------20-17-|
G|--19b---------19b---------19b---------------------|
D|--------------------------------------------------|
A|--------------------------------------------------|
E|--------------------------------------------------|


e|--------------20p17-------------------------------|
B|-----17-20p17-------20-17\16-17-20p17-------------|
G|--19b---------------------------------19-17----17-|
D|--------------------------------------------19----|
A|--------------------------------------------------|
E|--------------------------------------------------|


e|--------------------------------------20b---|
B|-----17-20p17----17-20p17----17-20p17-------|
G|--19b---------19b---------19b---------------|
D|--------------------------------------------|
A|--------------------------------------------|
E|--------------------------------------------|


e|--20p17-17-17-20p17-------------------------|----------------|
B|--------------------20-17----17-20p17-------|----------------|
G|--------------------------19b---------19b---|----------------|
D|--------------------------------------------|----------------|
A|--------------------------------------------|----------------|
E|--------------------------------------------|----------------|


[Second solo]

e|------17-----17-----17------17------17--|
B|--20b----20b----20b-----20b-----20b-----|
G|----------------------------------------|
D|----------------------------------------|
A|----------------------------------------|
E|----------------------------------------|


e|-----17-----17------17------17-----17----17-|
B|--------20b-----20b-----20b-----------20b---|
G|--19b--------------------------19b----------|
D|--------------------------------------------|
A|--------------------------------------------|
E|--------------------------------------------|


e|--20p17----17-20p17-------------------------------|
B|--------20----------20-17-17-17-20p17-19----------|
G|--------------------------------------19-17----17-|
D|--------------------------------------------19----|
A|--------------------------------------------------|
E|--------------------------------------------------|


e|----------------------------------------|----------------|----------------|
B|----------------------------------------|----------------|----------------|
G|--19b17---------------------------------|----------------|----------------|
D|--------19-17----17-19-17---------------|----------------|----------------|
A|--------------19----------19--17--15----|----------------|----------------|
E|----------------------------------------|----------------|----------------|


[Main solo] 
(w/ wah pedal)

e|-----7--------7------------------------|--------------------------------------|
B|------10p7------10p7---7-10p7---7-10p7-|----7-10p7---7-10p7---7-10p7---7-10p7-|
G|--9b-------9b--------9b-------9b-------|--9b-------9b-------9b-------9b-------|
D|---------------------------------------|--------------------------------------|
A|---------------------------------------|--------------------------------------|
E|---------------------------------------|--------------------------------------|


e|--10p7-9p7---7-9p7-10p7-9p7---7-10p7-|-----------------7--7--7--|
B|-----------9----------------9--------|--10b12----r10------------|
G|-------------------------------------|--------------------------|
D|-------------------------------------|--------------------------|
A|-------------------------------------|--------------------------|
E|-------------------------------------|--------------------------|


e|--7-10p7----7-10p7-----------------------|-------------------------------|
B|---------10--------10-7-7-7-10-7---------|-------------------------------|
G|---------------------------------9-7-7-7-|--9p7--------------------------|
D|-----------------------------------------|------9-7---7-9-7--------------|
A|-----------------------------------------|----------9-------9-7-5--5-----|
E|-----------------------------------------|----------------------------7--|


e|---------------------------------|------------------------|
B|---------------------------------|--------------------19--|
G|-----------------------------7---|--9b--9b--9b-9b-21b-----|
D|-------------7-7-9p7-7-7-7-9---9-|------------------------|
A|------5--7/9---------------------|------------------------|
E|--5h7----------------------------|------------------------|


e|----------------------------------------------|
B|-------19----19----19-22-19----19-22p19-24p19-|
G|---21b----21b---21b---------21----------------|
D|----------------------------------------------|
A|----------------------------------------------|
E|----------------------------------------------|


e|--------------------------------------------------|
B|--22-19----19-22p19-24p19-22-19----19-22p19-24p19-|
G|--------21----------------------21----------------|
D|--------------------------------------------------|
A|--------------------------------------------------|
E|--------------------------------------------------|


e|--------------------------------------------------|
B|--22-19----19-22p19-------------17----------------|
G|--------21----------21-18\16-18----18-16-14-14-14-|
D|--------------------------------------------------|
A|--------------------------------------------------|
E|--------------------------------------------------|


e|------------------------------|--22r-------22b---21r-19----19-|
B|--17---17---17--17~-17--17-14-|-------------------------22----|
G|--16b--16b--16b-16b-16b-16-14-|-------------------------------|
D|------------------------------|-------------------------------|
A|------------------------------|-------------------------------|
E|------------------------------|-------------------------------|


e|--22p19-------------------------------------------|
B|--------22-19----19-22p19-------------------------|
G|--------------21b---------21-19----19-21p19-------|
D|--------------------------------21----------21-19-|
A|--------------------------------------------------|
E|--------------------------------------------------|


e|--------------------------------------------------|
B|--------------------------------------------------|
G|--------------------------------------------------|
D|-----19-21p19-----------------------------19--21--|
A|--21----------21-19-17-17-19-17-16-17/21----------|
E|--------------------------------------------------|


e|------------------19---14p12-|
B|-----------------------------|
G|--21b--21b--21b--------------|
D|-----------------------------|
A|-----------------------------|
E|-----------------------------|


e|--17p14--17p14p12-17p14p12-17p14p12-17p14p12-17p14p12-17p14p12--------|
B|---------------------------------------------------------------17p14--|
G|----------------------------------------------------------------------|
D|----------------------------------------------------------------------|
A|----------------------------------------------------------------------|
E|----------------------------------------------------------------------|


e|--17p14-14-----17p14p12------17p14p12----0-17p14p12----0-|
B|-----------x-0----------17-0----------17------------17---|
G|---------------------------------------------------------|
D|---------------------------------------------------------|
A|---------------------------------------------------------|
E|---------------------------------------------------------|


e|--17p14p12----0-17p14p12----0-17p14-----14-17p14-------|
B|-----------17------------17----------17----------17-14-|
G|-------------------------------------------------------|
D|-------------------------------------------------------|
A|-------------------------------------------------------|
E|-------------------------------------------------------|


e|----------------------------|-----------------------|
B|-----14-17--17b-17b-17r-----|----9b-----------------|
G|--16b-----------------------|----9b-----7-------7-9b|
D|----------------------------|-------------9---------|
A|----------------------------|-----------------------|
E|----------------------------|-----------------------|


e|-----------------------------------|
B|---7-10-7---7-10-7-----------------|
G|----------9--------9-7-9-7---7~-9\-|
D|---------------------------9-------|
A|-----------------------------------|
E|-----------------------------------|


e|--------14-------17p14-------------------------------|
B|--12/14----17p14-------17-14----14-17p14-------------|
G|-----------------------------16b---------16-14-14-14-|
D|-----------------------------------------------------|
A|-----------------------------------------------------|
E|-----------------------------------------------------|


e|--------------------------|--22r-------22b---21r-19-19-19-|
B|--------------------------|-------------------------------|
G|--16b--16b--16b---16r-14--|-------------------------------|
D|--------------------------|-------------------------------|
A|--------------------------|-------------------------------|
E|--------------------------|-------------------------------|


e|--22p19-------------------------------------------|
B|--------22-19----19-22p19-------------------------|
G|--------------21b---------21-19-19-19-21p19-------|
D|--------------------------------------------21-19-|
A|--------------------------------------------------|
E|--------------------------------------------------|


e|--------------------------------------------------|
B|--------------------------------------------------|
G|--------------------------------------------------|
D|-----19-21p19-------------------------------19-21-|
A|--21----------21-19-17-17-19-17-16-17-19/21-------|
E|--------------------------------------------------|


e|--------------------------------------------|
B|--------------------------------------------|
G|--19-19-21p19-19-19-21p19-21-19----19/20----|
D|--------------------------------21-18/19-21-|
A|--------------------------------------------|
E|--------------------------------------------|


e|--------------------------------------------------|
B|--15-15-12----13-16-13-14-17p14----15-18p15----16-|
G|-----------13-------------------15----------16----|
D|--------------------------------------------------|
A|--------------------------------------------------|
E|--------------------------------------------------|


e|---------------------------------------------13-|
B|--19p16----17-20p17----18-21p18----18-21~-15----|
G|--------17----------18----------18--------------|
D|------------------------------------------------|
A|------------------------------------------------|
E|------------------------------------------------|


e|--17p14----15-19p16----16-20p17----18-21p18----19-|--22b--22b--22r-------|
B|--------16----------18----------20----------20----|----------------------|
G|--------------------------------------------------|----------------------|
D|--------------------------------------------------|----------------------|
A|--------------------------------------------------|----------------------|
E|--------------------------------------------------|----------------------|


e|--------------------------------------------------|
B|---17-17-20p17-19p17-x-17-22p17-20p17----17\16-17-|
G|--------------------------------------20----------|
D|--------------------------------------------------|
A|--------------------------------------------------|
E|--------------------------------------------------|


e|--------------------------------------------------|
B|--22p17-20p17-19p17----17-22p17-20p17-19p17-17-17-|
G|--------------------20----------------------------|
D|--------------------------------------------------|
A|--------------------------------------------------|
E|--------------------------------------------------|


e|--------------------------------------------------|--22b-------22b-----|
B|--22p17-20p17-19p17----17-22p17-20p17-19p17-17-17-|--------------------|
G|--------------------20----------------------------|--------------------|
D|--------------------------------------------------|--------------------|
A|--------------------------------------------------|--------------------|
E|--------------------------------------------------|--------------------|


e|--20p17-17-17-20p17-------------------------------|
B|--------------------20-17-17-17-20p17-------------|
G|--------------------------------------19-17----19-|
D|--------------------------------------------19----|
A|--------------------------------------------------|
E|--------------------------------------------------|


e|---------------------------------------------------|
B|---------------------------------------------------|
G|--17-17-17h19p17-----------------------------------|
D|-----------------19-17----17-19p17-----------------|
A|-----------------------19----------19-17-15--------|
E|--------------------------------------------17-17b-|


e|------------------------------------------------|
B|---------------------------------------------17-|
G|---------------------------------------17-19----|
D|------------------17-17-19p17----17-19----------|
A|--------15-17/19--------------19----------------|
E|--15-17-----------------------------------------|


e|-----------------------20p17----------------------------|
B|--20-17\16-20p17-20p17-------20-17-17-17-17-20-17\16-17-|
G|--------------------------------------------------------|
D|--------------------------------------------------------|
A|--------------------------------------------------------|
E|--------------------------------------------------------|


e|--------------------------------------------------|
B|--20p17----------------------------------17-20p17-|
G|--------19b17-17-17-19-17----17-19-17-19b---------|
D|--------------------------19----------------------|
A|--------------------------------------------------|
E|--------------------------------------------------|


e|--20p17----------------------------------------------|
B|--------20-17-17-17-20p17-17-------------------------|
G|-----------------------------19-17-17-17-19p17-17-17-|
D|-----------------------------------------------------|
A|-----------------------------------------------------|
E|-----------------------------------------------------|


e|--------------------------|--------------------------|------------------|
B|--20----20----20----20----|--20----20----------------|--20--------------|
G|--19b---19b---19b---19b---|--19b---19b---19b---19b---|--19b-------------|
D|--------------------------|--------------------------|------------------|
A|--------------------------|--------------------------|------------------|
E|--------------------------|--------------------------|------------------|


e|----------------|---------------------||
B|----------------|--20----20-----------||
G|----------------|--19b---19b----------||
D|----------------|---------------------||
A|----------------|---------------------||
E|----------------|---------------------||



************************************

h = hammer-on
p = pull-off
b = bend
r = bend release
/ = slide up/down
<5> = natural harmonic
[5] = artifical harmonic
~ = vibrato
tr = trill

************************************
Suggest correction
comments
print report bad tab
28 comments total. Showing first comments.
+1 reply
teegman 20 wrote on May 28 2002, 12:00 am

Hey, man. great job

+8 reply
Zanmato 40 wrote on June 7 2004, 12:00 am

yeah great but this solo is so argh it's so long it takes a life time to remember it

+11 reply
buckethead101 130 wrote on April 25 2005, 12:00 am

I think Dave Mustaine must be given some credit in songwriting.

guest
You may want to rate the tab now too:
select rating
Please do not post tabs as comments. Select "correction" instead!