Oops, an error
Loading. Please wait.

Holier Than Thou Tab

version 1
version 1

Solo

Whole song

25,635 views 36 this week
no commentswrite comment
1 2 3 4 5
accurate
x 3
add to favorites
launch autoscroll
font size
0
reset
how to read this tab
guitar tuner
Tab Pro tools
  • play this tab
  • loop segment
  • change instrument
  • show fretboard
  • metronome
Autoscroll
slow
fast
+/-
esc
set tempo
stop
Artist:METALLICA
Song:HOLIER THAN THOU
Tabbed by:Andrea D'Ascoli

m=mute
V=vibrato


Intro
E-------------------------------------------------
B-------------------------------------------------
G------------------------------------------------- repeat a few times
D--2---------------------2---------------------2--
A--2---------------------2---------------------2--    (1st guitar)
E--0---0-0-0---0-0-0---0-0---0-0-0---0-0-0---0-0--


2nd guitar
E-----------------------------------------
B-----------------------------------------
G-----------------------------------------    repeat till the riff A
D-------2-------------------------------2-
A-5-----2---------------------5-----0p1-2-
E-3-----0---0-0-0---0-0-0---0-3---------0-


Riff A
E--------------------------------------------
B--------------------------------------------
G--------------------------------------------    play till bridge
D-2----------------2----------------------2--
A-2---0p1---0p1----2---0p1---0p1----5-----2--
E-0-------3-----3--0-------3-----3--3-----0--
                m                m


Bridge
E----------------
B----------------
G----------------    into main riff 1
D----------------
A--1-0---0-1-----
E------3-----3---


Main riff 1
E--------------------------------------
B--------------------------------------
G--------------------------------------  repeat a few times
D--2----------------2------------------
A--2----0p1---0p1---2---0p1---0p1------  then into main riff 2
E--0--------3-----3-0-------3-----3----
            m     m         m     V


Main riff 2
E----------------------------------
B----------------------------------
G----------------------------------      here jaymz start to sing
D-----------2----------------------     
A-0-1---0-1-2------0-1---0-1-5-----
E-----3-----0----------3-----3-----then continue...
E----------------------------------
B----------------------------------
G----------------------------------
D---------------------------2------
A-0-1---0-1--11--1111--0----2------
E-----3-------------------3-0------


Repeat the intro & listen to the song to know the riff you have to play


Little solo before the fast solo
E-----------------------------------------------
B-----------------------------------------------
G-----------------------------------------------
D---------5---7-8-------------5---8-7-5---------
A--7--5p7---7-----7-8-----5p7---7-------7-------
E----------------------------------------------- 
                                                  
continue
G----------------------------------------------- 
D---------5---7-8-------------5---8-7-5---5-7---    2 Times
A--7--5p7---7-----7-8-----5p7---7-------8-----7-
E-----------------------------------------------

continue
G-------------------------------------------------------------------
D---------5---7-8-------------5---8-7-5---5-7---5-7----7-9----7-9---
A--7--5p7---7-----7-8-----5p7---7-------8-----9-----10-----11-------
E-------------------------------------------------------------------


i'm tabbing the solo....it's a little faster 4 me... 

4 any comments:   tiralacorda@libero.it
comments
We did not receive enough feedback on this tab! Please rate:
print report bad tab
1 2 3 4 5
I want to post or [tab]
guest
You may want to rate the tab now too:
select rating
Please do not post tabs as comments. Select "correction" instead!