Oops, an error
Loading. Please wait.
We have an official Jump In The Fire tab made by UG professional guitarists. Check out the tab »
×

Jump In The Fire bass

version 3
version 3

Whole song

187 views 1 this week
no commentswrite comment
1 2 3 4 5
2 more votes to show rating
add to favorites
×
Save as Personal and add changes to this tab that will be seen only by you. Learn more ›
×
You can save this tab as Personal to edit and correct it or add notes. All changes will be seen only by you. Learn more »
launch autoscroll
font size
0
reset
guitar tuner
backing track
0:00
0:00
edit
Autoscroll
slow
fast
+/-
esc
set tempo
stop
Author
Difficulty
Song: Jump in the Fire
By: Metallica
Album: Kill 'em all
1983
\m/ \m/

************************************
| x   Dead note
| r   Let Ring
************************************

[Intro]

G|---------------------------------------------------------------------------|
D|---------------------------------------------------------------------------|
A|-------------------------------------0-3--0-1------------------------------|
E|-3--3--3--3--1--1--1--1--0--0--0--0----------------------------------------|

G|---------------------------------------------------------------------------|
D|---------------------------------------------------------------------------|
A|-------------1--1--1--1--8808808--0-3--0-1---------------------------------|
E|-3--3--3--3----------------------------------------------------------------|

G|---------------------------------------------------------------------------|
D|---------------------------------------------------------------------------|
A|-------------------------------------0-3--0-1------------------------------|
E|-3--3--3--3--1--1--1--1--0--0--0--0----------------------------------------|

G|---------------------------------------------------------------------------|
D|---------------------------------------------------------------------------|
A|-------------1--1--1--1--------------0-3--0-1------------------------------|
E|-3--3--3--3--------------1--1--1--1----------------------------------------|


[Verse 1]

G|---------------------------------------------------------------------------| \
D|---------------------------------------------------------------------------|  \
A|-------------1r------------------------------------------------------------|   \
E|-1-3-3-1-3-0------1--1--1--------------------------------------------------|    \
                                                                                   |(x5)
G|---------------------------------------------------------------------------|    /
D|---------------------------------------------------------------------------|   /
A|-------------3r---x-x-x-4r-------------------------------------------------|  /
E|-1-3-3-1-3-0---------------------------------------------------------------| /

G|---------------------------------------------------------------------------|
D|---------------------------------------------------------------------------|
A|-------------1r------------------------------------------------------------|
E|-1-3-3-1-3-0------1--1--1--------------------------------------------------|

G|---------------------------------------------------------------------------|
D|---------------------------------------------------------------------------|
A|-------------3------4--4---------------------------------------------------|
E|-1-3-3-1-3-0---------------------------------------------------------------|


[Chorus]

G|---------------------------------------------------------------------------|
D|---------------------------------------------------------------------------|
A|-------------------------------------0-3--0-1------------------------------|
E|-3--3--3--3--1--1--1--1--0--0--0--0----------------------------------------|

G|---------------------------------------------------------------------------|
D|---------------------------------------------------------------------------|
A|-------------1--1--1--1--8808808--0-3--0-1---------------------------------|
E|-3--3--3--3----------------------------------------------------------------|

G|---------------------------------------------------------------------------|
D|---------------------------------------------------------------------------|
A|-------------------------------------0-3--0-1------------------------------|
E|-3--3--3--3--1--1--1--1--0--0--0--0----------------------------------------|

G|---------------------------------------------------------------------------|
D|---------------------------------------------------------------------------|
A|-------------1--1--1--1--------------0-3--0-1------------------------------|
E|-3--3--3--3--------------1--1--1--1----------------------------------------|


[Verse 2]

G|---------------------------------------------------------------------------| \
D|---------------------------------------------------------------------------|  \
A|-------------1r------------------------------------------------------------|   \
E|-1-3-3-1-3-0------1--1--1--------------------------------------------------|    \
                                                                                   |(x3)
G|---------------------------------------------------------------------------|    /
D|---------------------------------------------------------------------------|   /
A|-------------3r---x-x-x-4r-------------------------------------------------|  /
E|-1-3-3-1-3-0---------------------------------------------------------------| /

G|---------------------------------------------------------------------------|
D|---------------------------------------------------------------------------|
A|-------------1r------------------------------------------------------------|
E|-1-3-3-1-3-0------1--1--1--------------------------------------------------|

G|---------------------------------------------------------------------------|
D|---------------------------------------------------------------------------|
A|-------------3------4--4---------------------------------------------------|
E|-1-3-3-1-3-0---------------------------------------------------------------|


[Chorus]

G|---------------------------------------------------------------------------|
D|---------------------------------------------------------------------------|
A|-------------------------------------0-3--0-1------------------------------|
E|-3--3--3--3--1--1--1--1--0--0--0--0----------------------------------------|

G|---------------------------------------------------------------------------|
D|---------------------------------------------------------------------------|
A|-------------1--1--1--1--8808808--0-3--0-1---------------------------------|
E|-3--3--3--3----------------------------------------------------------------|

G|---------------------------------------------------------------------------|
D|---------------------------------------------------------------------------|
A|-------------------------------------0-3--0-1------------------------------|
E|-3--3--3--3--1--1--1--1--0--0--0--0----------------------------------------|

G|---------------------------------------------------------------------------|
D|---------------------------------------------------------------------------|
A|-------------1--1--1--1--------------0-3--0-1------------------------------|
E|-3--3--3--3--------------1--1--1--1----------------------------------------|


[Solo]

G|---------------------------------------------------------------------------| \
D|---------------------------------------------------------------------------|  \
A|---------------------------------------------------------------------------|   \
E|-6-6-6-6-6--6-6-6-6-6-4--6-------------------------------------------------|    \
                                                                                   |(x8)
G|---------------------------------------------------------------------------|    /
D|---------------------------------------------------------------------------|   /
A|---------------------------------------------------------------------------|  /
E|-3-3-3-3-3--3-3-3-3-3-1--3-------------------------------------------------| /


[Verse 3]

G|---------------------------------------------------------------------------| \
D|---------------------------------------------------------------------------|  \
A|-------------1r------------------------------------------------------------|   \
E|-1-3-3-1-3-0------1--1--1--------------------------------------------------|    \
                                                                                   |(x3)
G|---------------------------------------------------------------------------|    /
D|---------------------------------------------------------------------------|   /
A|-------------3r---x-x-x-4r-------------------------------------------------|  /
E|-1-3-3-1-3-0---------------------------------------------------------------| /

G|---------------------------------------------------------------------------|
D|---------------------------------------------------------------------------|
A|-------------1r------------------------------------------------------------|
E|-1-3-3-1-3-0------1--1--1--------------------------------------------------|

G|---------------------------------------------------------------------------|
D|---------------------------------------------------------------------------|
A|-------------3------4--4---------------------------------------------------|
E|-1-3-3-1-3-0---------------------------------------------------------------|


[Chorus]

G|---------------------------------------------------------------------------| \
D|---------------------------------------------------------------------------|  \
A|-------------------------------------0-3--0-1------------------------------|   \
E|-3--3--3--3--1--1--1--1--0--0--0--0----------------------------------------|    \
                                                                                   \
G|---------------------------------------------------------------------------|      \
D|---------------------------------------------------------------------------|       \
A|-------------1--1--1--1--8808808--0-3--0-1---------------------------------|        \
E|-3--3--3--3----------------------------------------------------------------|         \
                                                                                        |(x2)
G|---------------------------------------------------------------------------|         /
D|---------------------------------------------------------------------------|        /
A|-------------------------------------0-3--0-1------------------------------|       /
E|-3--3--3--3--1--1--1--1--0--0--0--0----------------------------------------|      /
                                                                                   /
G|---------------------------------------------------------------------------|    /
D|---------------------------------------------------------------------------|   /
A|-------------1--1--1--1--------------0-3--0-1------------------------------|  /
E|-3--3--3--3--------------1--1--1--1----------------------------------------| /


[Outro]

G|---------------------------------------------------------------------------| \
D|---------------------------------------------------------------------------|  \
A|-------------1r------------------------------------------------------------|   \
E|-1-3-3-1-3-0----1--1--1----------------------------------------------------|    \
                                                                                   |(x10)
G|---------------------------------------------------------------------------|    /
D|---------------------------------------------------------------------------|   /
A|-------------3r---x-x-x-4r-------------------------------------------------|  /
E|-1-3-3-1-3-0---------------------------------------------------------------| /



[Lyrics]:
Down in the depths of my fiery home
The summons bell will chime
Tempting you and all the earth
To join our sinful kind
There is a job to be done and I'm the one
You people make me do it
Now it is time for your fate and I won't hesitate
To pull you down into this pit

So come on
Jump in the Fire
So come on
Jump in the Fire

With hell in my eyes and with death in my veins
The end is closing in
Feeding on the minds of man
And from their souls within
My disciples all shout to search out
And they always shall obey
Follow me now my child not the meek or the mild
But do just as I say

So come on
Jump in the Fire
So come on
Jump in the Fire

[Solo]

Jump by your will or be taken by force
I'll get you either way
Trying to keep the hellfire lit
I am stalking you as prey
Living your life as me I am you you see it's part of being every one
So reach down grab my hand walk with me through the land
Come home where you belong

So come on
Jump in the Fire
So come on
Jump in the FireSong: Jump in the Fire
Come on
Jump in now

[Outro Solo]

            
            
Suggest correction
Creating personal tab
Creating personal tab
You can edit any tab online and save it as your Personal.

You can edit, replace or remove any tab part or add personal notes – all changes will be seen only by you.

Personal tabs can be accessed anytime from any device, even offline.
Learn more »
Give kudos to tab author, rate the tab!
1 2 3 4 5
comments
print report bad tab
guest
You may want to rate the tab now too:
select rating
Wanna post a correction for this tab? Suggest correction