Oops, an error
Loading. Please wait.

Last Caress Bass

version 1
version 1

Whole song

Interactive

3,478 views 1 this week
5 commentsread comments
1 2 3 4 5
x 3
add to favorites
launch autoscroll
font size
0
reset
guitar tuner
×
Best way to learn
"Last Caress"
Autoscroll
slow
fast
+/-
esc
set tempo
stop
Metallica
Last Caress
written by The Misfits
as performed on Garage Days Revisited
tab by Dan Pfeifer; Pfeifer@world.std.com



          2 TIMES                             2 TIMES     
 |  W| (H) Q Q  | W| W|  Q E E E E E E| E E E E Q Q  |
G|---|----------|--|--|---------------|--------------|
D|o--|-----3-5-o|-3|--|o--------------|---------3-5-o|
A|o-3|-(3)-----o|--|-5|o-3-3-3-3-3-3-3|-3-3-3-3-----o|
E|---|----------|--|--|---------------|--------------|

VERSE           2|
    E E E E Q Q  | Q E E E E E E| Q E E E E E E|  Q E E E E E E  |
G|---------------|--------------|--------------|-----------------|
D|o---------3-5-o|-3-3-3-3-3-3-3|--------------|o---------------o|
A|o-3-3-3-3-----o|--------------|-5-5-5-5-5-5-5|o-3-3-3-3-3-3-3-o|
E|---------------|--------------|--------------|-----------------|

   Q E E E E E E| Q E E E E E E| W| W| Q E E E E E E |
G|--------------|--------------|--|--|---------------|
D|-3-3-3-3-3-3-3|-5-5-5-5-5-5-5|-2|--|---------------|
A|--------------|--------------|--|-5|---------------|
E|--------------|--------------|--|--|-5-5-5-5-5-5-5-|

   Q E E E E E E| Q E E E E E E| Q E E E E E E| Q H.|
G|--------------|--------------|--------------|-----|
D|--------------|-5-5-5-5-5-5-5|-------------3|-3-5-|
A|-3-3-3-3-3-3-3|--------------|-3-3-3-3-3-3--|-----|
E|--------------|--------------|--------------|-----|
             
   Q E E E E E E|  Q H.|
G|--------------|------|
D|-------------3|-3-5--|
A|-3-3-3-3-3-3--|------|
E|--------------|------|

OUTRO
    Q E E E E E E|  Q H. | W|
G|---------------|-------|--|
D|o-------------3|--3-5-o|--|
A|o-3-3-3-3-3-3--|------o|-3|
E|---------------|-------|--|




Suggest correction
Give kudos to tab author, rate the tab!
1 2 3 4 5
comments
print report bad tab
5 comments total. Showing first comments.
0 reply
8898se97 10 Jun 17, 2002 08:00 PM

hmmmm

0 reply
METSOAD 1,622 Apr 20, 2006 04:36 AM

so confusing

0 reply
saturns_bassman 789 Jun 10, 2006 08:02 AM

this tab sucks ass

guest
You may want to rate the tab now too:
select rating
Wanna post a correction for this tab? Suggest correction