Oops, an error
Loading. Please wait.

Lords Of Summer tab

version 2
version 2

Whole song

  • This tab is for Lords Of Summer which was rewritte... Show more
34 views 21 this week
no commentswrite comment
1 2 3 4 5
3 more votes to show rating
add to favorites
×
Save as Personal and add changes to this tab that will be seen only by you. Learn more ›
×
You can save this tab as Personal to edit and correct it or add notes. All changes will be seen only by you. Learn more »
launch autoscroll
font size
0
reset
how to read this tab
guitar tuner
backing track
0:00
0:00
edit
Autoscroll
slow
fast
+/-
esc
set tempo
stop
About this tab version
This tab is for Lords Of Summer which was rewritten and re-recorded for the deluxe edition of Hardwired... To Self-Destruct. Solo is not tabbed. Was this info helpful? Yes No
Artist: Metallica
Song: Lords Of Summer
Album: Hardwired... To Self-Destruct (Deluxe) (2016)

Guitar 1 (E A D G B e) - 'James Hetfield - Distortion, Rhythm'
Guitar 2 (E A D G B e) - 'Kirk Hammett - Distortion, Rhythm'
Guitar 3 (E A D G B e) - 'Kirk Hammett - Distortion, Lead w/ Wah'
Guitar 4 (E A D G B e) - 'James Hetfield - Distortion, Lead'
Guitar 5 (E A D G B e) - 'Kirk Hammett - Distortion, Lead Harmony'

- For a given tempo, when 'double time' is stated, the tempo is doubled for note clarity.
- A section will begin in the time stated.

[Intro] (0:00)
Q = 92
Single Time
4/4

  (Guitar 1 & 2)
    E   E   H.                          E   E   H.
e|-----------------------------------|-----------------------------------|
B|-----------------------------------|-----------------------------------|
G|-----------------------------------|-----------------------------------|
D|-----------------------------------|-----------------------------------|
A|--5---4---4------------------------|--5---4---4------------------------|
E|--3---2---2------------------------|--3---2---2------------------------|


    E   E   H.                          E   E   H.
e|-----------------------------------|-----------------------------------|
B|-----------------------------------|-----------------------------------|
G|-----------------------------------|-----------------------------------|
D|-----------------------------------|-----------------------------------|
A|--5---4---4------------------------|--5---2---2------------------------|
E|--3---2---2------------------------|--3---0---0------------------------|

  (Gtr 1)
    E   E   H.                          E   E   H.
e|-----------------------------------|-----------------------------------|
B|-----------------------------------|-----------------------------------|
G|-----------------------------------|-----------------------------------|
D|-----------------------------------|-----------------------------------|
A|--5---4---4------------------------|--5---4---4------------------------|
E|--3---2---2------------------------|--3---2---2------------------------|
 |                                   |                                   |
 |(Gtr 2)                            |                                   |
 |  E   E   Q       H                |  E   E   Q       H                |
e|------------------2----------------|------------------2----------------|
B|------------------2----------------|------------------2----------------|
G|-----------------------------------|-----------------------------------|
D|-----------------------------------|-----------------------------------|
A|--5---4---4------------------------|--5---4---4------------------------|
E|--3---2---2------------------------|--3---2---2------------------------|


    E   E   H.                          E   E   Q       H
e|-----------------------------------|-----------------------------------|
B|-----------------------------------|-----------------------------------|
G|-----------------------------------|-----------------------------------|
D|-----------------------------------|-----------------------------------|
A|--5---4---4------------------------|--5---2---2-------[Pick slide]-----|
E|--3---2---2------------------------|--3---0---0------------------------|
 |                                   |                                   |
 |(Gtr 2)                            |                                   |
 |  E   E   Q       H                |  E   E   Q       H                |
e|------------------2----------------|-----------------------------------|
B|------------------2----------------|-----------------------------------|
G|-----------------------------------|-----------------------------------|
D|-----------------------------------|-----------------------------------|
A|--5---4---4------------------------|--5---2---2-------[Pick slide]-----|
E|--3---2---2------------------------|--3---0---0------------------------|

  (Gtr 1 & 2)
    E   E   E   S S S S E  (Q)          E   E   E   S S S S E  (Q)
e|-----------------------------------|-----------------------------------|
B|-----------------------------------|-----------------------------------|
G|-----------------------------------|-----------------------------------|
D|-----------------------------------|-----------------------------------|
A|--5---4---4-------4-4-4------------|--5---4---4-------4-4-4------------|
E|--3---2---2---2-0-2-2-2------------|--3---2---2---2-0-2-2-2------------|
PM              . .                                 . .

    E   E   E   S S S S E  (Q)          E   E   Q       Q       Q
e|-----------------------------------|-----------------------------------|
B|-----------------------------------|-----------------------------------|
G|-----------------------------------|-----------------------------------|
D|-----------------------------------|-----------------------------------|
A|--5---4---4-------4-4-4------------|--5---2---2-------2-------2--------|
E|--3---2---2---2-0-2-2-2------------|--3---0---0-------0-------0--------|
PM              . .


Q = 87 (0:33)
Double Time
  (Gtr 1)
    S S S S E   E   E   S S S   S S     S S S S E   E   E   S S S   S S
e|-----------------------------------|-----------------------------------|
B|o----------------------------------|-----------------------------------|
G|-----------------------------------|-----------------------------------|
D|----------4------------------------|----------4------------------------|
A|o----------------------------------|-----------------------------------|
E|--0h2-2-2-----2---2---2-2-2---2-2--|--0h2-2-2-----2---2---2-2-2---2-2--|
PM      . .         .   . . .   . .  |      . .         .   . . .   . .  |
 |(Gtr 2)                            |                                   |
 |  E  (Q.)        (H)               | (W)                               |
e|-----------------------------------|-----------------------------------|
B|o----------------------------------|-----------------------------------|
G|-----------------------------------|-----------------------------------|
D|-----------------------------------|-----------------------------------|
A|o-4\-------------------------------|-----------------------------------|
E|--2\-------------------------------|-----------------------------------|


    S S S S E   E   E   S S S   S S     S S S S E   E   E   E   Q        (x2)
e|-----------------------------------|-----------------------------------|
B|-----------------------------------|----------------------------------o|
G|-----------------------------------|-----------------------------------|
D|----------4------------------------|----------4------------------------|
A|-----------------------------------|------------------5---4---4-------o|
E|--0h2-2-2-----2---2---2-2-2---2-2--|--0h2-2-2-----2---3---2---2--------|
PM      . .         .   . . .   . .  |      . .                          |
 | (W)                               | (H)              E   E   Q        |
e|-----------------------------------|-----------------------------------|
B|-----------------------------------|----------------------------------o|
G|-----------------------------------|-----------------------------------|
D|-----------------------------------|-----------------------------------|
A|-----------------------------------|------------------5---4---4-------o|
E|-----------------------------------|------------------3---2---2--------|

(Gtr 1 & 2)
    S S S S E   E   E   S S S   S S     S S S S E   E   E   S S S   S S
e|-----------------------------------|-----------------------------------|
B|o----------------------------------|-----------------------------------|
G|-----------------------------------|-----------------------------------|
D|----------4------------------------|----------4------------------------|
A|o----------------------------------|-----------------------------------|
E|--0h2-2-2-----2---2---2-2-2---2-2--|--0h2-2-2-----2---2---2-2-2---2-2--|
PM      . .         .   . . .   . .  |      . .         .   . . .   . .  |

    S S S S E   E   E   S S S   S S     S S S S E   E   E   E   Q        (x2)
e|-----------------------------------|-----------------------------------|
B|-----------------------------------|----------------------------------o|
G|-----------------------------------|-----------------------------------|
D|----------4------------------------|----------4------------------------|
A|-----------------------------------|------------------5---4---4-------o|
E|--0h2-2-2-----2---2---2-2-2---2-2--|--0h2-2-2-----2---3---2---2--------|
PM      . .         .   . . .   . .  |      . .                          |

    E   S S Q       E   S S Q           E   S S Q       Q       Q
e|-----------------------------------|-----------------------------------|
B|o----------------------------------|-----------------------------------|
G|-----------------------------------|-----------------------------------|
D|-----------------------------------|-----------------------------------|
A|o---------2---------------2--------|----------2-------2-------3--------|
E|--0---0-0-0-------0---0-0-0--------|--0---0-0-0-------0-------1--------|
PM  .   . .         .   . .             .   . .

    S S S S E   E   E   S S S   S S     S S S S E   E   E   S S S   S S  (x2)
e|-----------------------------------|-----------------------------------|
B|-----------------------------------|----------------------------------o|
G|-----------------------------------|-----------------------------------|
D|----------4------------------------|----------4------------------------|
A|-----------------------------------|----------------------------------o|
E|--0h2-2-2-----2---2---2-2-2---2-2--|--0h2-2-2-----2---2---2-2-2---2-2--|
PM      . .         .   . . .   . .  |      . .         .   . . .   . .  |

    S S S S E   E   E   S S S   S S   
e|-----------------------------------|
B|-----------------------------------|
G|-----------------------------------|
D|----------4------------------------|
A|-----------------------------------|
E|--0h2-2-2-----2---2---2-2-2---2-2--|
PM      . .         .   . . .   . .  |

  2/4               4/4
    S S S S E   E     E  (Q.)        (H)               
e|-----------------|-----------------------------------|
B|-----------------|-----------------------------------|
G|-----------------|-----------------------------------|
D|-----------------|-----------------------------------|
A|----------5---4--|--4--------------------------------|
E|--0h2-2-2-3---2--|--2--------------------------------|
PM      . .        |                                   |

[Verse 1] (1:11)
Double Time

(Gtr 1 & 2)
    E   S S S S S S S S S S S S S S     S S S S S S S S E.    E.    E
e|-----------------------------------|-----------------------------------|
B|o----------------------------------|-----------------------------------|
G|-----------------------------------|-----------------------------------|
D|-----------------------------------|-----------------------------------|
A|o----------------------------------|------------------3-----2----------|
E|--2---2-2-2-2-2-2-2-2-2-2-2-2-2-2--|--2-2-2-2-2-2-2-2-------------0----|
PM      . . . . . . . . . . . . . .  |  . . . . . . . .                  |

    E   S S S S S S S S S S S S S S     S S S S S S S S E.    E.    E
e|-----------------------------------|-----------------------------------|
B|-----------------------------------|-----------------------------------|
G|-----------------------------------|-----------------------------------|
D|-----------------------------------|-----------------------------------|
A|-----------------------------------|------------------3-----2----------|
E|--2---2-2-2-2-2-2-2-2-2-2-2-2-2-2--|--2-2-2-2-2-2-2-2-------------0----|
PM      . . . . . . . . . . . . . .  |  . . . . . . . .                  |

    E   S S S S S S S S S S S S S S     S S S S S S S S E.    E.    E
e|-----------------------------------|-----------------------------------|
B|-----------------------------------|-----------------------------------|
G|-----------------------------------|-----------------------------------|
D|-----------------------------------|-----------------------------------|
A|-----------------------------------|------------------3-----2----------|
E|--0---0-0-0-0-0-0-0-0-0-0-0-0-0-0--|--0-0-0-0-0-0-0-0-------------0----|
PM      . . . . . . . . . . . . . .  |  . . . . . . . .                  |

    E   S S S S S S S S S S S S S S     S S S S S S S S S S S S S S S S  (x2)
e|-----------------------------------|-----------------------------------|
B|-----------------------------------|----------------------------------o|
G|-----------------------------------|-----------------------------------|
D|-----------------------------------|-----------------------------------|
A|-----------------------------------|----------------------------------o|
E|--2---2-2-2-2-2-2-2-2-2-2-2-2-2-2--|--2-2-2-2-2-2-2-2-2-2-2-2-2-2-2-2--|
PM      . . . . . . . . . . . . . .  |  . . . . . . . . . . . . . . . .  |

    E   S S Q       E   S S Q           E   S S Q       Q       Q
e|-----------------------------------|-----------------------------------|
B|o----------------------------------|-----------------------------------|
G|-----------------------------------|-----------------------------------|
D|-----------------------------------|-----------------------------------|
A|o---------2---------------2--------|----------2-------2-------3--------|
E|--0---0-0-0-------0---0-0-0--------|--0---0-0-0-------0-------1--------|
PM  .   . .         .   . .          |  .   . .                          |

    S S S S E   E   E   S S S   S S     S S S S E   E   E   S S S   S S  (x2)
e|-----------------------------------|-----------------------------------|
B|-----------------------------------|----------------------------------o|
G|-----------------------------------|-----------------------------------|
D|----------4------------------------|----------4------------------------|
A|-----------------------------------|----------------------------------o|
E|--0h2-2-2-----2---2---2-2-2---2-2--|--0h2-2-2-----2---2---2-2-2---2-2--|
PM      . .         .   . . .   . .  |      . .         .   . . .   . .  |

    E   S S Q       E   S S Q           E   S S Q       E   S S Q
e|-----------------------------------|-----------------------------------|
B|-----------------------------------|-----------------------------------|
G|-----------------------------------|-----------------------------------|
D|-----------------------------------|-----------------------------------|
A|----------2---------------2--------|----------2---------------2--------|
E|--0---0-0-0-------0---0-0-0--------|--0---0-0-0-------0---0-0-0--------|
PM  .   . .         .   . .          |  .   . .         .   . .          |
 
    E   S S Q       E   S S Q           E   S S Q       Q       Q
e|-----------------------------------|-----------------------------------|
B|-----------------------------------|-----------------------------------|
G|-----------------------------------|-----------------------------------|
D|----------5---------------5--------|----------4-------2----------------|
A|--3---3-3-3-------3---3-3-3--------|--2---2-2-2-------0-------2--------|
E|-----------------------------------|--------------------------0--------|
PM  .   . .         .   . .          |  .   . .                          |

    S S S S E   E   E   S S S   S S     S S S S E   E   E   S S S   S S
e|-----------------------------------|-----------------------------------|
B|-----------------------------------|-----------------------------------|
G|-----------------------------------|-----------------------------------|
D|----------4------------------------|----------4------------------------|
A|-----------------------------------|-----------------------------------|
E|--0h2-2-2-----2---2---2-2-2---2-2--|--0h2-2-2-----2---2---2-2-2---2-2--|
PM      . .         .   . . .   . .  |      . .         .   . . .   . .  |

    E   S S Q       E   S S Q           E   S S Q       E   S S Q
e|-----------------------------------|-----------------------------------|
B|-----------------------------------|-----------------------------------|
G|-----------------------------------|-----------------------------------|
D|-----------------------------------|-----------------------------------|
A|----------2---------------2--------|----------2---------------2--------|
E|--0---0-0-0-------0---0-0-0--------|--0---0-0-0-------0---0-0-0--------|
PM  .   . .         .   . .          |  .   . .         .   . .          |
 
    E   S S Q       E   S S Q           E   S S Q       Q       Q
e|-----------------------------------|-----------------------------------|
B|-----------------------------------|-----------------------------------|
G|-----------------------------------|-----------------------------------|
D|----------5---------------5--------|----------4-------2----------------|
A|--3---3-3-3-------3---3-3-3--------|--2---2-2-2-------0-------2--------|
E|-----------------------------------|--------------------------0--------|
PM  .   . .         .   . .          |  .   . .                          |

[Pre-chorus 1] (2:02)
Single Time

  (Gtr 1 & 2)
    S S S S E   E   S S S S E   E       S S E   Q       S S E   Q
e|-----------------------------------|-----------------------------------|
B|-----------------------------------|-----------------------------------|
G|-----------------------------------|-----------------------------------|
D|------4-------4-------4-------4----|-----------------------------------|
A|----------3---2-----------3---2----|------5---5-----------5---5--------|
E|--0h2---2---------0h2---2----------|--0-2-3---3-------0-2-3---3--------|
PM                                   |  . .             . .              |

    S S S S E   E   S S S S E   E       S S E   Q   S S S S E   S E.
e|-----------------------------------|-----------------------------------|
B|-----------------------------------|-----------------------------------|
G|-----------------------------------|-----------------------------------|
D|------4-------4-------4-------4----|-----------------------------------|
A|----------3---2-----------3---2----|------5---5-------5-4-5---5--------|
E|--0h2---2---------0h2---2----------|--0-2-3---3---0-2-3-2-3-----3~-----|
PM                                   |  . .         . .                  |

[Chorus 1] (2:14)
Single Time

  (Gtr 1 & 2)
    S S S S E   E  +H                   S S S S E   E   H                (x4)
e|-----------------------------------|-----------------------------------|
B|o----------------------------------|----------------------------------o|
G|----------5---4--------------------|----------5---4---2----------------|
D|------4---x---4--------------------|------4---x---4---2----------------|
A|o---------3---2--------------------|----------3---2---0---------------o|
E|--0h2---2--------------------------|--0h2---2--------------------------|


Double Time
    S S S S Q       S S S S Q           S S S S Q       S S S S Q
e|-----------------------------------|-----------------------------------|
B|-----------------------------------|-----------------------------------|
G|-----------------------------------|-----------------------------------|
D|-----------------------------------|-----------------------------------|
A|----------2---------------2--------|----------2---------------2--------|
E|--0-0-0-0-0-------0-0-0-0-0--------|--0-0-0-0-0-------0-0-0-0-0--------|
PM  . . . .         . . . .          |  . . . .         . . . .          |
 
    S S S S Q       S S S S Q           S S S S Q       Q       Q
e|-----------------------------------|-----------------------------------|
B|-----------------------------------|-----------------------------------|
G|-----------------------------------|-----------------------------------|
D|----------5---------------5--------|----------4-------2----------------|
A|--3-3-3-3-3-------3-3-3-3-3--------|--2-2-2-2-2-------0-------2--------|
E|-----------------------------------|--------------------------0--------|
PM  . . . .         . . . .          |  . . . .                          |

    S S S S E   E   E   S S S   S S     S S S S E   E   E   S S S   S S
e|-----------------------------------|-----------------------------------|
B|-----------------------------------|-----------------------------------|
G|-----------------------------------|-----------------------------------|
D|----------4------------------------|----------4------------------------|
A|-----------------------------------|-----------------------------------|
E|--0h2-2-2-----2---2---2-2-2---2-2--|--0h2-2-2-----2---2---2-2-2---2-2--|
PM      . .         .   . . .   . .  |      . .         .   . . .   . .  |

    S S S S E   E   E   S S S   S S   
e|-----------------------------------|
B|-----------------------------------|
G|-----------------------------------|
D|----------4------------------------|
A|-----------------------------------|
E|--0h2-2-2-----2---2---2-2-2---2-2--|
PM      . .         .   . . .   . .  |

  2/4                 4/4
    S S S S E   E       E  (Q.)        (H)               
e|-------------------|-----------------------------------|
B|-------------------|-----------------------------------|
G|-------------------|-----------------------------------|
D|-------------------|-----------------------------------|
A|----------5---4----|--4--------------------------------|
E|--0h2-2-2-3---2----|--2--------------------------------|
PM      . .          |                                   |

[Verse 2] (2:48) Same as Verse 1
Double Time

(Gtr 1 & 2)
    E   S S S S S S S S S S S S S S     S S S S S S S S E.    E.    E
e|-----------------------------------|-----------------------------------|
B|o----------------------------------|-----------------------------------|
G|-----------------------------------|-----------------------------------|
D|-----------------------------------|-----------------------------------|
A|o----------------------------------|------------------3-----2----------|
E|--2---2-2-2-2-2-2-2-2-2-2-2-2-2-2--|--2-2-2-2-2-2-2-2-------------0----|
PM      . . . . . . . . . . . . . .  |  . . . . . . . .                  |

    E   S S S S S S S S S S S S S S     S S S S S S S S E.    E.    E
e|-----------------------------------|-----------------------------------|
B|-----------------------------------|-----------------------------------|
G|-----------------------------------|-----------------------------------|
D|-----------------------------------|-----------------------------------|
A|-----------------------------------|------------------3-----2----------|
E|--2---2-2-2-2-2-2-2-2-2-2-2-2-2-2--|--2-2-2-2-2-2-2-2-------------0----|
PM      . . . . . . . . . . . . . .  |  . . . . . . . .                  |

    E   S S S S S S S S S S S S S S     S S S S S S S S E.    E.    E
e|-----------------------------------|-----------------------------------|
B|-----------------------------------|-----------------------------------|
G|-----------------------------------|-----------------------------------|
D|-----------------------------------|-----------------------------------|
A|-----------------------------------|------------------3-----2----------|
E|--0---0-0-0-0-0-0-0-0-0-0-0-0-0-0--|--0-0-0-0-0-0-0-0-------------0----|
PM      . . . . . . . . . . . . . .  |  . . . . . . . .                  |

    E   S S S S S S S S S S S S S S     S S S S S S S S S S S S S S S S  (x2)
e|-----------------------------------|-----------------------------------|
B|-----------------------------------|----------------------------------o|
G|-----------------------------------|-----------------------------------|
D|-----------------------------------|-----------------------------------|
A|-----------------------------------|----------------------------------o|
E|--2---2-2-2-2-2-2-2-2-2-2-2-2-2-2--|--2-2-2-2-2-2-2-2-2-2-2-2-2-2-2-2--|
PM      . . . . . . . . . . . . . .  |  . . . . . . . . . . . . . . . .  |

    E   S S Q       E   S S Q           E   S S Q       Q       Q
e|-----------------------------------|-----------------------------------|
B|o----------------------------------|-----------------------------------|
G|-----------------------------------|-----------------------------------|
D|-----------------------------------|-----------------------------------|
A|o---------2---------------2--------|----------2-------2-------3--------|
E|--0---0-0-0-------0---0-0-0--------|--0---0-0-0-------0-------1--------|
PM  .   . .         .   . .          |  .   . .                          |

    S S S S E   E   E   S S S   S S     S S S S E   E   E   S S S   S S  (x2)
e|-----------------------------------|-----------------------------------|
B|-----------------------------------|----------------------------------o|
G|-----------------------------------|-----------------------------------|
D|----------4------------------------|----------4------------------------|
A|-----------------------------------|----------------------------------o|
E|--0h2-2-2-----2---2---2-2-2---2-2--|--0h2-2-2-----2---2---2-2-2---2-2--|
PM      . .         .   . . .   . .  |      . .         .   . . .   . .  |

    E   S S Q       E   S S Q           E   S S Q       E   S S Q
e|-----------------------------------|-----------------------------------|
B|-----------------------------------|-----------------------------------|
G|-----------------------------------|-----------------------------------|
D|-----------------------------------|-----------------------------------|
A|----------2---------------2--------|----------2---------------2--------|
E|--0---0-0-0-------0---0-0-0--------|--0---0-0-0-------0---0-0-0--------|
PM  .   . .         .   . .          |  .   . .         .   . .          |
 
    E   S S Q       E   S S Q           E   S S Q       Q       Q
e|-----------------------------------|-----------------------------------|
B|-----------------------------------|-----------------------------------|
G|-----------------------------------|-----------------------------------|
D|----------5---------------5--------|----------4-------2----------------|
A|--3---3-3-3-------3---3-3-3--------|--2---2-2-2-------0-------2--------|
E|-----------------------------------|--------------------------0--------|
PM  .   . .         .   . .          |  .   . .                          |

    S S S S E   E   E   S S S   S S     S S S S E   E   E   S S S   S S
e|-----------------------------------|-----------------------------------|
B|-----------------------------------|-----------------------------------|
G|-----------------------------------|-----------------------------------|
D|----------4------------------------|----------4------------------------|
A|-----------------------------------|-----------------------------------|
E|--0h2-2-2-----2---2---2-2-2---2-2--|--0h2-2-2-----2---2---2-2-2---2-2--|
PM      . .         .   . . .   . .  |      . .         .   . . .   . .  |

    E   S S Q       E   S S Q           E   S S Q       E   S S Q
e|-----------------------------------|-----------------------------------|
B|-----------------------------------|-----------------------------------|
G|-----------------------------------|-----------------------------------|
D|-----------------------------------|-----------------------------------|
A|----------2---------------2--------|----------2---------------2--------|
E|--0---0-0-0-------0---0-0-0--------|--0---0-0-0-------0---0-0-0--------|
PM  .   . .         .   . .          |  .   . .         .   . .          |
 
    E   S S Q       E   S S Q           E   S S Q       Q       Q
e|-----------------------------------|-----------------------------------|
B|-----------------------------------|-----------------------------------|
G|-----------------------------------|-----------------------------------|
D|----------5---------------5--------|----------4-------2----------------|
A|--3---3-3-3-------3---3-3-3--------|--2---2-2-2-------0-------2--------|
E|-----------------------------------|--------------------------0--------|
PM  .   . .         .   . .          |  .   . .                          |

[Pre-chorus 2] (3:39) Same as Pre-chorus 1
Single Time

  (Gtr 1 & 2)
    S S S S E   E   S S S S E   E       S S E   Q       S S E   Q
e|-----------------------------------|-----------------------------------|
B|-----------------------------------|-----------------------------------|
G|-----------------------------------|-----------------------------------|
D|------4-------4-------4-------4----|-----------------------------------|
A|----------3---2-----------3---2----|------5---5-----------5---5--------|
E|--0h2---2---------0h2---2----------|--0-2-3---3-------0-2-3---3--------|
PM                                   |  . .             . .              |

    S S S S E   E   S S S S E   E       S S E   Q   S S S S E   S E.
e|-----------------------------------|-----------------------------------|
B|-----------------------------------|-----------------------------------|
G|-----------------------------------|-----------------------------------|
D|------4-------4-------4-------4----|-----------------------------------|
A|----------3---2-----------3---2----|------5---5-------5-4-5---5--------|
E|--0h2---2---------0h2---2----------|--0-2-3---3---0-2-3-2-3-----3~-----|
PM                                   |  . .         . .                  |

[Chorus 2] (3:50)
Single Time

  (Gtr 1 & 2)
    S S S S E   E  +H                   S S S S E   E   H                (x4)
e|-----------------------------------|-----------------------------------|
B|o----------------------------------|----------------------------------o|
G|----------5---4--------------------|----------5---4---2----------------|
D|------4---x---4--------------------|------4---x---4---2----------------|
A|o---------3---2--------------------|----------3---2---0---------------o|
E|--0h2---2--------------------------|--0h2---2--------------------------|


Double Time
    S S S S Q       S S S S Q           S S S S Q       S S S S Q
e|-----------------------------------|-----------------------------------|
B|-----------------------------------|-----------------------------------|
G|-----------------------------------|-----------------------------------|
D|-----------------------------------|-----------------------------------|
A|----------2---------------2--------|----------2---------------2--------|
E|--0-0-0-0-0-------0-0-0-0-0--------|--0-0-0-0-0-------0-0-0-0-0--------|
PM  . . . .         . . . .          |  . . . .         . . . .          |
 
    S S S S Q       S S S S Q           S S S S Q       Q       Q
e|-----------------------------------|-----------------------------------|
B|-----------------------------------|-----------------------------------|
G|-----------------------------------|-----------------------------------|
D|----------5---------------5--------|----------4-------2----------------|
A|--3-3-3-3-3-------3-3-3-3-3--------|--2-2-2-2-2-------0-------2--------|
E|-----------------------------------|--------------------------0--------|
PM  . . . .         . . . .          |  . . . .                          |

    S S S S E   E   E   S S S   S S     S S S S E   E   E   S S S   S S
e|-----------------------------------|-----------------------------------|
B|-----------------------------------|-----------------------------------|
G|-----------------------------------|-----------------------------------|
D|----------4------------------------|----------4------------------------|
A|-----------------------------------|-----------------------------------|
E|--0h2-2-2-----2---2---2-2-2---2-2--|--0h2-2-2-----2---2---2-2-2---2-2--|
PM      . .         .   . . .   . .  |      . .         .   . . .   . .  |

    S S S S E   E   E   S S S   S S   
e|-----------------------------------|
B|-----------------------------------|
G|-----------------------------------|
D|----------4------------------------|
A|-----------------------------------|
E|--0h2-2-2-----2---2---2-2-2---2-2--|
PM      . .         .   . . .   . .  |

  2/4                 4/4
    S S S S E   E       E  (Q.)        (H)                 (W)
e|-------------------|-----------------------------------|-----------------------------------|
B|-------------------|-----------------------------------|-----------------------------------|
G|-------------------|-----------------------------------|-----------------------------------|
D|-------------------|-----------------------------------|-----------------------------------|
A|----------5---4----|--4--------------------------------|-----------------------------------|
E|--0h2-2-2-3---2----|--2--------------------------------|-----------------------------------|
PM      . .          |                                   |                                   |

[Interlude: Part 1] (4:26)
Single Time

  (Gtr 1 & 2)
    S S S S S S S S S S S S S S S S     S S S S S S S S S S S S S S S S
e|-----------------------------------|-----------------------------------|
B|-----------------------------------|-----------------------------------|
G|-----------------------------------|-----------------------------------|
D|-----------------------------------|-----------------------------------|
A|--4-----4-----4-----4-----4---2-4--|-/7\4---4-----4-----4-----4---2-4--|
E|--2-x-x-2-x-x-2-x-x-2-x-x-2-x-0-2--|-/5\2-0-2-x-x-2-x-x-2-x-x-2-x-0-2--|


    S S S S S S S S S S S S S S S S     S S S S S S S S S S S S S S S S
e|-----------------------------------|-----------------------------------|
B|-----------------------------------|-----------------------------------|
G|-----------------------------------|-----------------------------------|
D|-----------------------------------|-----------------------------------|
A|-/7\4---4-----4-----4-----4---2-4--|-/7\4---4-----4-----4-----4---2-7--|
E|-/5\2-0-2-x-x-2-x-x-2-x-x-2-x-0-2--|-/5\2-0-2-x-x-2-x-x-2-x-x-2-x-0-5--|

  (Gtr 1 & 2)
    S S S S S S S S S S S S S S S S     S S S S S S S S S S S S S S S S
e|-----------------------------------|-----------------------------------|
B|-----------------------------------|-----------------------------------|
G|-----------------------------------|-----------------------------------|
D|-----------------------------------|-----------------------------------|
A|--4-----4-----4-----4-----4---2-4--|-/7\4---4-----4-----4-----4---2-4--|
E|--2-x-x-2-x-x-2-x-x-2-x-x-2-x-0-2--|-/5\2-0-2-x-x-2-x-x-2-x-x-2-x-0-2--|
 |                                   |                                   |
 |(Gtr 3)                            |                                   |
 | (S)S. S. S. S. S+H                | +S S. S. S. S. S+H                |
e|-----------------------------------|-----------------------------------|
B|-----------------------------------|-----------------------------------|
G|-----------------------------------|----------------5~-----------------|
D|---/7--4--6--7--4~-----------------|---/7--4--6--7---------------------|
A|-----------------------------------|-----------------------------------|
E|-----------------------------------|-----------------------------------|


    S S S S S S S S S S S S S S S S     S S S S S S S S S S S S S S S S
e|-----------------------------------|-----------------------------------|
B|-----------------------------------|-----------------------------------|
G|-----------------------------------|-----------------------------------|
D|-----------------------------------|-----------------------------------|
A|-/7\4---4-----4-----4-----4---2-4--|-/7\4---4-----4-----4-----4---2-7--|
E|-/5\2-0-2-x-x-2-x-x-2-x-x-2-x-0-2--|-/5\2-0-2-x-x-2-x-x-2-x-x-2-x-0-5--|
 |                                   |                                   |
 | +S S. S. S. S. S+H                | +S S. S. S. S. S+H                |
e|-----------------------------------|-----------------------------------|
B|-----------------------------------|-----------------------------------|
G|-----------------------------------|----------------6~-----------------|
D|---/7--4--6--7--4~-----------------|---/7--4--6--7---------------------|
A|-----------------------------------|-----------------------------------|
E|-----------------------------------|-----------------------------------|


    S S S S S S S S S S S S S S S S     S  S S S S S S S S S S S S S S S
e|-----------------------------------|------------------------------------|
B|-----------------------------------|------------------------------------|
G|-----------------------------------|------------------------------------|
D|-----------------------------------|------------------------------------|
A|--7-----7-----7-----7-----7---5-7--|-/10\7-5-7-----7-----7-----7---5-7--|
E|--5-5-5-5-5-5-5-5-5-5-5-5-5-5-3-5--|-/8-\5-3-5-5-5-5-5-5-5-5-5-5-5-3-5--|
PM    . .   . .   . .   . .   .      |           . .   . .   . .   .      |
 | (S)S. S. S. S. E   S. S. S. S. S  | +S  S. S. S. S. S S. S. S S. S. S  |
e|-----------------------------------|------------------------------------|
B|-----------------------------------|------------------------------------|
G|--------------------------9--------|-------------------9----------------|
D|---/10-7--9--10-7---10-7-----10-7--|----/10-7--9--10-7----10-9-7--------|
A|-----------------------------------|------------------------------8--7--|
E|-----------------------------------|------------------------------------|


    S  S S S S S S S S S S S S S S S     S  S S S S S S S S S S S S S S S
e|------------------------------------|------------------------------------|
B|------------------------------------|------------------------------------|
G|------------------------------------|------------------------------------|
D|------------------------------------|------------------------------------|
A|-/10\7-5-7-----7-----7-----7---5-7--|-/10\7-5-7-----7-----7-----7---5-10-|
E|-/8-\5-3-5-5-5-5-5-5-5-5-5-5-5-3-5--|-/8-\5-3-5-5-5-5-5-5-5-5-5-5-5-3-8--|
PM     . .   . .   . .   . .   .      |           . .   . .   . .   .      |
 | +S  S. S. S. S. E   S. S. S. S. S  | +S  S. S. S. S. S S. S. S S. S. S  |
e|------------------------------------|------------------------------------|
B|------------------------------------|------------------------------------|
G|---------------------------8--------|-------------------9----------------|
D|----/10-7--9--10-7---10-7-----10-7--|----/10-7--9--10-7----10-9-7--------|
A|------------------------------------|------------------------------8--7\-|
E|------------------------------------|------------------------------------|


Double Time
  (Gtr 1 & 2)
    W                                   W
e|-----------------------------------|-----------------------------------|
B|-----------------------------------|-----------------------------------|
G|-----------------------------------|-----------------------------------|
D|-----------------------------------|-----------------------------------|
A|--7--------------------------------|--9--------------------------------|
E|--5--------------------------------|--7--------------------------------|
 |                                   |                                   |
 |(Gtr 4)                            |                                   |
 | (E)  E.    E.    E.    E.    E    | +E   E.    E.    E.    E.    E    |
e|-----------------------------------|-----------------------------------|
B|-----------------------------------|-----------------------------------|
G|-----------------------------------|------------------9----------------|
D|-----/10----7-----9-----10----7----|-----/10----7-----------10----7----|
A|-----------------------------------|-----------------------------------|
E|-----------------------------------|-----------------------------------|
 |                                   |                                   |
 |(Gtr 5)                            |                                   |
 | (E)  E.    E.    E.    E.    E    | +E   E.    E.    E.    E.    E    |
e|-----------------------------------|-----------------------------------|
B|-----------------------------------|------------------8----------------|
G|-----/9-----------7-----9----------|------9-----------------9----------|
D|------------10----------------10---|------------10----------------10---|
A|-----------------------------------|-----------------------------------|
E|-----------------------------------|-----------------------------------|

    W                                   W
e|-----------------------------------|-----------------------------------|
B|-----------------------------------|-----------------------------------|
G|-----------------------------------|-----------------------------------|
D|-----------------------------------|-----------------------------------|
A|--10-------------------------------|--12-------------------------------|
E|--8--------------------------------|--10-------------------------------|
 |                                   |                                   |
 | +E   E.    E.    E.    E.    E    |  E.    E.    E   E.    E.    E    |
e|-----------------------------------|-----------------------------------|
B|-----------------------------------|-----------------------------------|
G|------------------------------7----|--9--------------------------------|
D|------10----7-----9-----10---------|--------10----9---7----------------|
A|-----------------------------------|------------------------8-----7----|
E|-----------------------------------|-----------------------------------|
 |                                   |                                   |
 | +E   E.    E.    E.    E.    E    |  E.    E.    E   E.    E.    E    |
e|-----------------------------------|-----------------------------------|
B|------------------------------8----|--10-------------------------------|
G|------9-----------7-----9----------|--------9-----7--------------------|
D|------------10---------------------|------------------10----7-----6----|
A|-----------------------------------|-----------------------------------|
E|-----------------------------------|-----------------------------------|

    W                                   W
e|-----------------------------------|-----------------------------------|
B|-----------------------------------|-----------------------------------|
G|-----------------------------------|-----------------------------------|
D|-----------------------------------|--8--------------------------------|
A|--7--------------------------------|--6--------------------------------|
E|--5--------------------------------|-----------------------------------|
 |                                   |                                   |
 | +E   E.    E.    E.    E.    E    | +E   E.    E.    E.    E.    E    |
e|-----------------------------------|-----------------------------------|
B|-----------------------------------|-----------------------------------|
G|-----------------------------------|------------7-----8----------------|
D|-----/10----7-----9-----10----7----|------10----------------10----7----|
A|-----------------------------------|-----------------------------------|
E|-----------------------------------|-----------------------------------|
 |                                   |                                   |
 | +E   E.    E.    E.    E.    E    | +E   E.    E.    E.    E.    E    |
e|-----------------------------------|-----------------------------------|
B|-----------------------------------|-----------------------------------|
G|-----/9-----------7-----9----------|------8-----10----11----8----------|
D|------------10----------------10---|------------------------------10---|
A|-----------------------------------|-----------------------------------|
E|-----------------------------------|-----------------------------------|

    W                                   S S S S Q       S S S S Q
e|-----------------------------------|-----------------------------------|
B|-----------------------------------|-----------------------------------|
G|-----------------------------------|-----------------------------------|
D|--7--------------------------------|-----------------------------------|
A|--5--------------------------------|----------2---------------2--------|
E|-----------------------------------|--0-0-0-0-0-------0-0-0-0-0--------|
PM                                   |  . . . .         . . . .          |
 | +E   E.    E.    E.    E.    E    |  H               H                |
e|-----------------------------------|-----------------------------------|
B|-----------------------------------|-----------------------------------|
G|------7-----------------7-----9----|------------------9~---------------|
D|------------9-----10---------------|--9~-------------------------------|
A|-----------------------------------|-----------------------------------|
E|-----------------------------------|-----------------------------------|
 |                                   |                                   |
 | +E   E.    E.    E.    E.    E    |  H               H                |
e|-----------------------------------|-----------------------------------|
B|------------------------------8----|------------------9~---------------|
G|-----10-----7-----9-----10---------|--9~-------------------------------|
D|-----------------------------------|-----------------------------------|
A|-----------------------------------|-----------------------------------|
E|-----------------------------------|-----------------------------------|

    S S S S Q       S S S S Q           S S S S Q       S S S S Q
e|-----------------------------------|-----------------------------------|
B|-----------------------------------|-----------------------------------|
G|-----------------------------------|-----------------------------------|
D|-----------------------------------|----------5---------------5--------|
A|----------2---------------2--------|--3-3-3-3-3-------3-3-3-3-3--------|
E|--0-0-0-0-0-------0-0-0-0-0--------|-----------------------------------|
PM  . . . .         . . . .          |  . . . .         . . . .          |
 |  H               H                |  W                                |
e|-----------------------------------|-----------------------------------|
B|------------------12~--------------|--17~------------------------------|
G|--13~------------------------------|-----------------------------------|
D|-----------------------------------|-----------------------------------|
A|-----------------------------------|-----------------------------------|
E|-----------------------------------|-----------------------------------|
 |                                   |                                   |
 |  H               H                |  W                                |
e|-----------------------------------|-----------------------------------|
B|--12~-------------17~--------------|--17~------------------------------|
G|-----------------------------------|-----------------------------------|
D|-----------------------------------|-----------------------------------|
A|-----------------------------------|-----------------------------------|
E|-----------------------------------|-----------------------------------|

    S S S S Q       Q       Q          +H.                     (Q)
e|-----------------------------------|--------------------------x--------|
B|-----------------------------------|--------------------------x--------|
G|-----------------------------------|--------------------------x--------|
D|----------4-------2----------------|--------------------------x--------|
A|--2-2-2-2-2-------0----------------|--------------------------x--------|
E|--------------------------3--------|--b5----------------------x--------|
PM  . . . .                          |                                   |
 | +W                                | +H.                     (Q)       |
e|-----------------------------------|-----------------------------------|
B|-----------------------------------|--b19------------------------------|
G|-----------------------------------|-----------------------------------| [These bends are very gradual]
D|-----------------------------------|-----------------------------------|
A|-----------------------------------|-----------------------------------|
E|-----------------------------------|-----------------------------------|
 |                                   |                                   |
 | +W                                | +H.                     (Q)       |
e|-----------------------------------|-----------------------------------|
B|-----------------------------------|--b19------------------------------|
G|-----------------------------------|-----------------------------------|
D|-----------------------------------|-----------------------------------|
A|-----------------------------------|-----------------------------------|
E|-----------------------------------|-----------------------------------|


[Solo] (5:17)
Solo is played by Guitar 3, but I don't know what's being played (the wah doesn't help).

Single Time
  (Gtr 1 & 2)
    S S S S S S S S S S S S S S S S     S S S S S S S S S S S S S S S S
e|-----------------------------------|-----------------------------------|
B|-----------------------------------|-----------------------------------|
G|-----------------------------------|-----------------------------------|
D|-----------------------------------|-----------------------------------|
A|--4-----4-----4-----4-----4---2-4--|-/7\4---4-----4-----4-----4---2-4--|
E|--2-x-x-2-x-x-2-x-x-2-x-x-2-x-0-2--|-/5\2-0-2-x-x-2-x-x-2-x-x-2-x-0-2--|

    S S S S S S S S S S S S S S S S     S S S S S S S S S S S S S S S S
e|-----------------------------------|-----------------------------------|
B|-----------------------------------|-----------------------------------|
G|-----------------------------------|-----------------------------------|
D|-----------------------------------|-----------------------------------|
A|-/7\4---4-----4-----4-----4---2-4--|-/7\4---4-----4-----4-----4---2-7--|
E|-/5\2-0-2-x-x-2-x-x-2-x-x-2-x-0-2--|-/5\2-0-2-x-x-2-x-x-2-x-x-2-x-0-5--|

    Q.          S S S S S S S S S S     S S S S S S S S S S S S S S S S
e|-----------------------------------|-----------------------------------|
B|-----------------------------------|-----------------------------------|
G|--9--------------------------------|-----------------------------------|
D|--9--------------------------------|-----------------------------------|
A|--7-----------2-----2-----2---0-2--|--5-2-0-2-----2-----2-----2---0-2--|
E|--------------0-0-0-0-0-0-0-0------|----------0-0-0-0-0-0-0-0-0-0------|
PM                . .   . .   .      |          . .   . .   . .   .      |

    E   E   E   S S S S S S S S S S     S S S S S S S S S S S S S S S S
e|-----------------------------------|-----------------------------------|
B|-----------------------------------|-----------------------------------|
G|-----------------------------------|-----------------------------------|
D|--9---9---9------------------------|-----------------------------------|
A|--7---7---7---2-----2-----2---0-2--|--5-2-0-2-----2-----2-----2---7-5--|
E|--------------0-0-0-0-0-0-0-0------|----------0-0-0-0-0-0-0-0-0-0-5-3--|
PM                . .   . .   .      |          . .   . .   . .   . . .  |

                    |--3--|  |--3--|
    E   S S E   S S E  E  E  E  E  E
e|------------------------------------|
B|------------------------------------|
G|------------------------------------|
D|------------------------------------|
A|--2---7-5-2---7-5-3--3--3--3--3--3--|
E|--0---5-3-0---5-3-1--1--1--1--1--1--|
PM      . .     . . .  .  .  .  .  .  |

[Interlude: Part 2] (5:44)
Double Time

  (Gtr 1 & 2)
    S S S S Q       S S S S Q           S S S S Q       E   E   E   E
e|-----------------------------------|-----------------------------------|
B|-----------------------------------|-----------------------------------|
G|-----------------------------------|-----------------------------------|
D|-----------------------------------|-----------------------------------|
A|----------2---------------2--------|----------2-------3---2---0--------|
E|--0-0-0-0-0-------0-0-0-0-0--------|--0-0-0-0-0-------------------3----|
PM  . . . .         . . . .          |  . . . .                          |

    S S S S Q       S S S S Q           S S S S Q       E   E   E   E
e|-----------------------------------|-----------------------------------|
B|-----------------------------------|-----------------------------------|
G|-----------------------------------|-----------------------------------|
D|-----------------------------------|-----------------------------------|
A|----------2---------------2--------|----------2-------3---2---0--------|
E|--0-0-0-0-0-------0-0-0-0-0--------|--0-0-0-0-0-------------------3----|
PM  . . . .         . . . .          |  . . . .                          |

    S S S S Q       S S S S Q           S S S S Q       E   E   E   E
e|-----------------------------------|-----------------------------------|
B|-----------------------------------|-----------------------------------|
G|-----------------------------------|-----------------------------------|
D|-----------------------------------|-----------------------------------|
A|----------2---------------2--------|----------2-------3---2---0--------|
E|--0-0-0-0-0-------0-0-0-0-0--------|--0-0-0-0-0-------------------3----|
PM  . . . .         . . . .          |  . . . .                          |

    S S S S Q       S S S S Q           S S S S Q       S S S S Q       
e|-----------------------------------|-----------------------------------|
B|-----------------------------------|-----------------------------------|
G|-----------------------------------|-----------------------------------|
D|-----------------------------------|-----------------------------------|
A|----------5---------------5--------|----------7---------------8--------|
E|--3-3-3-3-3-------3-3-3-3-3--------|--5-5-5-5-5-------6-6-6-6-6--------|
PM  . . . .         . . . .          |  . . . .         . . . .          |

    E   E   Q       E   Q       E       E   E   Q       E   Q       E    (x4)
e|-----------------------------------|-----------------------------------|
B|o----------------------------------|----------------------------------o|
G|-----------------------------------|-----------------------------------|
D|-----------------------------------|-----------------------------------|
A|o---------2-----------5-------7----|----------2-----------8-------7---o|
E|--0---0---0-------0---3-------5----|--0---0---0-------0---6-------5----|
PM  .   .                            |  .   .                            |

    E   E   E   E   E   E   E   E       E   E   E   E   E   E   E   E
e|-----------------------------------|-----------------------------------|
B|-----------------------------------|-----------------------------------|
G|-----------------------------------|-----------------------------------|
D|-----------------------------------|-----------------------------------|
A|--8---8---8---8---8---8---8---8----|--8---8---8---8---8---8---8---8----|
E|--6---6---6---6---6---6---6---6----|--6---6---6---6---6---6---6---6----|
PM      .   .   .   .   .   .   .    |  .                                |

[Pre-Chorus 3] (6:08)
Double Time

  (Gtr 1 & 2)
    S S S S Q       S S S S Q           S S S S Q       S S S S Q
e|-----------------------------------|-----------------------------------|
B|-----------------------------------|-----------------------------------|
G|-----------------------------------|-----------------------------------|
D|-----------------------------------|-----------------------------------|
A|----------2---------------2--------|----------2---------------2--------|
E|--0-0-0-0-0-------0-0-0-0-0--------|--0-0-0-0-0-------0-0-0-0-0--------|
PM  . . . .         . . . .          |  . . . .         . . . .          |
 
    S S S S Q       S S S S Q           S S S S Q       Q       Q
e|-----------------------------------|-----------------------------------|
B|-----------------------------------|-----------------------------------|
G|-----------------------------------|-----------------------------------|
D|----------5---------------5--------|----------4-------2----------------|
A|--3-3-3-3-3-------3-3-3-3-3--------|--2-2-2-2-2-------0-------2--------|
E|-----------------------------------|--------------------------0--------|
PM  . . . .         . . . .          |  . . . .                          |

    E   E   E   E   E   E   E   E       E   E   E   E   E   E   E   E
e|-----------------------------------|-----------------------------------|
B|-----------------------------------|-----------------------------------|
G|-----------------------------------|-----------------------------------|
D|-----------------------------------|-----------------------------------|
A|--4---4---4---4---4---4---4---4----|--4---4---4---4---4---4---4---4----|
E|--2---2---2---2---2---2---2---2----|--2---2---2---2---2---2---2---2----|
PM      .   .   .   .   .   .   .    |  .                                |

    S S S S Q       S S S S Q           S S S S Q       S S S S Q
e|-----------------------------------|-----------------------------------|
B|-----------------------------------|-----------------------------------|
G|-----------------------------------|-----------------------------------|
D|-----------------------------------|-----------------------------------|
A|----------2---------------2--------|----------2---------------2--------|
E|--0-0-0-0-0-------0-0-0-0-0--------|--0-0-0-0-0-------0-0-0-0-0--------|
PM  . . . .         . . . .          |  . . . .         . . . .          |
 
    S S S S Q       S S S S Q           S S S S Q       Q       Q
e|-----------------------------------|-----------------------------------|
B|-----------------------------------|-----------------------------------|
G|-----------------------------------|-----------------------------------|
D|----------5---------------5--------|----------4-------2----------------|
A|--3-3-3-3-3-------3-3-3-3-3--------|--2-2-2-2-2-------0-------2--------|
E|-----------------------------------|--------------------------0--------|
PM  . . . .         . . . .          |  . . . .                          |

Single Time
    S S S S E   E   S S S S E   E       S S S S S S S S S S S S S E.
e|-----------------------------------|-----------------------------------|
B|-----------------------------------|-----------------------------------|
G|-----------------------------------|-----------------------------------|
D|------4-------4-------4-------4----|-----------------------------------|
A|----------3---2-----------3---2----|--5-----5-----5-----5-----5--------|
E|--0h2---2---------0h2---2----------|--3-0-0-3-0-0-3-0-0-3-0-0---3~-----|
PM                                   |    . .   . .   . .   . .          |

    S S S S E   E   S S S S E   E       S S S S S S S S S S E   S E.
e|-----------------------------------|-----------------------------------|
B|-----------------------------------|-----------------------------------|
G|-----------------------------------|-----------------------------------|
D|------4-------4-------4-------4----|--------------------------5--------|
A|----------3---2-----------3---2----|--5-----5-------4-5-4-5------------|
E|--0h2---2---------0h2---2----------|--3-0-0-3-0-0-0-2-3-2-3-----3~-----|
PM                                   |    . .   . .                      |

[Chorus 3] (6:32)
Single Time

  (Gtr 1 & 2)
    S S S S E   E  +H                   S S S S E   E   H                (x4)
e|-----------------------------------|-----------------------------------|
B|o----------------------------------|----------------------------------o|
G|----------5---4--------------------|----------5---4---2----------------|
D|------4---x---4--------------------|------4---x---4---2----------------|
A|o---------3---2--------------------|----------3---2---0---------------o|
E|--0h2---2--------------------------|--0h2---2--------------------------|


Double Time
    S S S S Q       S S S S Q           S S S S Q       S S S S Q
e|-----------------------------------|-----------------------------------|
B|-----------------------------------|-----------------------------------|
G|-----------------------------------|-----------------------------------|
D|-----------------------------------|-----------------------------------|
A|----------2---------------2--------|----------2---------------2--------|
E|--0-0-0-0-0-------0-0-0-0-0--------|--0-0-0-0-0-------0-0-0-0-0--------|
PM  . . . .         . . . .          |  . . . .         . . . .          |
 
    S S S S Q       S S S S Q           S S S S Q       Q       Q
e|-----------------------------------|-----------------------------------|
B|-----------------------------------|-----------------------------------|
G|-----------------------------------|-----------------------------------|
D|----------5---------------5--------|----------4-------2----------------|
A|--3-3-3-3-3-------3-3-3-3-3--------|--2-2-2-2-2-------0-------2--------|
E|-----------------------------------|--------------------------0--------|
PM  . . . .         . . . .          |  . . . .                          |

    S S S S E   E   E   S S S   S S     S S S S E   E   E   S S S   S S
e|-----------------------------------|-----------------------------------|
B|-----------------------------------|-----------------------------------|
G|-----------------------------------|-----------------------------------|
D|----------4------------------------|----------4------------------------|
A|-----------------------------------|-----------------------------------|
E|--0h2-2-2-----2---2---2-2-2---2-2--|--0h2-2-2-----2---2---2-2-2---2-2--|
PM      . .         .   . . .   . .  |      . .         .   . . .   . .  |

    S S S S E   E   E   S S S   S S   
e|-----------------------------------|
B|-----------------------------------|
G|-----------------------------------|
D|----------4------------------------|
A|-----------------------------------|
E|--0h2-2-2-----2---2---2-2-2---2-2--|
PM      . .         .   . . .   . .  |

  2/4              
    S S S S E   E       E               
e|-------------------|-----------------|
B|-------------------|-----------------|
G|-------------------|-----------------|
D|-------------------|-----------------|
A|----------5---4----|--4\-------------|
E|--0h2-2-2-3---2----|--2\-------------|
PM      . .          |                 | 


************************************

|  ~   Vibrato
|  \   Slide down
|  x   Dead note
|  PM  Palm mute
|  h   Hammer-on
|  /   Slide up
|  b   Bend
|  S   Sixteenth note
|  E   Eighth note
|  Q   Quarter note
|  H   Half note
|  W   Whole note
|  .   Dotted note
| (N)  Rest
|  +   Add note value
|o o|  Reprise

************************************

            
            
Suggest correction
Creating personal tab
Creating personal tab
You can edit any tab online and save it as your Personal.

You can edit, replace or remove any tab part or add personal notes – all changes will be seen only by you.

Personal tabs can be accessed anytime from any device, even offline.
Learn more »
Give kudos to tab author, rate the tab!
1 2 3 4 5
comments
print report bad tab
guest
You may want to rate the tab now too:
select rating
Wanna post a correction for this tab? Suggest correction