Oops, an error
Loading. Please wait.

Master Of Puppets Bass Tab

version 1
14,681 views 21 this week
3 commentsread comments
1 2 3 4 5
accurate
x 6
add to favorites
launch autoscroll
font size
0
reset
guitar tuner
Tab Pro tools
  • play this tab
  • loop segment
  • change instrument
  • show fretboard
  • metronome
×
Best way to learn
"Master Of Puppets"
Autoscroll
slow
fast
+/-
esc
set tempo
stop
Contributor
Difficulty
intermediate
#----------------------------------PLEASE NOTE-----------------------------------#
#This file is the author's own work and represents their interpretation of the---#
#song. You may only use this file for private study, scholarship, or research.---#
#This tab was submitted by the user Centahne on Ultimate-Guitar. This tab is...--#
#only exclusive on Ultimate-guitar.com. If posted on any site guitar tab website-#
#Legal action will be taken.-----------------------------------------------------#
#--------------------------------------------------------------------------------#


G|--------0-------------9h11p9-------12------------------------------------------------|
D|------2---------12-----------12-----------12----12------9----------------------------|
A|----2--------12---12------------12-----10----10---10--7------------------------------|
E|--0--------10------------------------8-----------------------------------------------|


G|----2--4------2--4-----2--4--------------------|
D|---------------------1-------------------------|   Repeat Riff 1
A|--0-----0--2-------2---------------------------|
E|-----------------------------3-----------------|

On the second time, play the end of Riff 1 like this

G|-----2--4----2--4-----2--4----------------------|
D|--------------------1------5--Slide to riff 2---|
A|--0-------0-------2-----------------------------|
E|------------------------------------------------|


G|-----16-12---14-11-------------14-11----12-9-----------------------|
D|--14------14------12-12-12-12--------12------10--10-10-10-10-------|
A|-------------------------------------------------------------------|
E|-------------------------------------------------------------------


G|--12-9----11-9h11p9-8---------------------11-12--------|
D|-------10-------------10-9-10-12-10-11-13--------------|  Repeat Riff 2
A|-------------------------------------------------------|
E|-------------------------------------------------------|




G|----------------------14-------16------------------------------------|
D|--14--14-16-17--16-17----17-16---17-14h17p14-10----------------------|
A|---------------------------------------------------------------------|
E|---------------------------------------------------------------------|


G|-----------------12-11---12-11----------------------------------------------|
D|--12bend-12bend--------9------9-12-9---5h7-7bend--7-5---5-------------------|
A|------------------------------------------------------7---7-----------------|
E|----------------------------------------------------------------------------|


G|------------------------------------------------4---12-11------------|
D|----5-7-5-4---7-5-4h5p4-------------------2-4-5---5------------------|
A|--5---------5-----------3---2-3--23-5-3-5----------------------------|
E|--------------------------5------------------------------------------|


G|-------------------16--|
D|--13h14p13-------------|
A|-----------14-12-------|
E|-----------------------|

Repeat Riff 2 Twice
Repeat Riff 1 Twice.

The End.
comments
print report bad tab
3 comments total.
-2 reply
henrihell wrote on September 7 2009, 01:33 pm

what the **** dude?? :O

the bass plays like below at that part of the song!
G|--------------------------------|
D|--------------------------------|
A|-7--5~---3~---0~----2~----6~----|
E|--------------------------------|

G|----------------------------------------------------------------|
D|o--------------------------------------------------------------o|
A|o-7----7-5~--555-5---5-3-3~--333-3-0-3-0~--0-2-220-2--66660-6--o|
E|---0-0-------------5--------------------------------------------|

G|-------------------------------------------------------------|
D|o-----------------------------------------------------------o|
A|o-7-----7-5~--555-5/7-5-3~--333-0-3-0~--0-22220-2--6666006--o|
E|----0-0------------------------------------------------------|

G|----------------------------------------------------------------|
D|o--------------------------------------------------------------o|
A|o-7----7-5~--555-5---5-3-3~--333-3-0-3-0~--0-2-220-2--66660-6--o|
E|---0-0-------------5--------------------------------------------|

0 reply
Centahne wrote on September 11 2009, 03:02 pm

Ok it is like transcribed for the bass the guitar solo.

0 reply
UeharaJunior16 wrote on October 14 2010, 06:26 am

Nice!!!! :D

I want to post or [tab]
guest
You may want to rate the tab now too:
select rating
Please do not post tabs as comments. Select "correction" instead!