Oops, an error
Loading. Please wait.

Master Of Puppets Tab

4,837 views 27 this week
no commentswrite comment
1 2 3 4 5
accurate
x 3
add to favorites
launch autoscroll
font size
0
reset
how to read this tab
guitar tuner
Autoscroll
slow
fast
+/-
esc
set tempo
stop
Help us to improve Ultimate-Guitar.com Take our survey!
×
Author
Difficulty
intermediate
Metallica
Master of Puppets - Middle Solo
Album "Master of Puppets" 1986 © 

Tuning: normal

Interlude [clean]:
==================
e|------------------0h2p0-----3-------------------------------------------|
B|--------------3---------3----------3---3-----0-----0-------0-------0----|
G|--------0---2---2---------2------0---0---0-------2-------2-------2------|
D|------2---0--------------------------------2-------------------1--------|
A|----2--------------------------3---------------0-----0-2-----2----------|
E|--0------------------------------------------------------------------3--|

e|------------------0h2p0-----3-------------------------------------------|
B|--------------3---------3----------3---3-----0-----0-------0-------0----|
G|--------0---2---2---------2------0---0---0-------2-------2-------2------|
D|------2---0--------------------------------2-------------------1--------|
A|----2--------------------------3---------------0-----0-2-----2----------|
E|--0------------------------------------------------------------------3--|


Guitar Solo [Distortion]:
=========================
e||-----19-15----17-14--------------17-14----15-12--------------15-12-----|
B||--17-------17-------15--15-15-15-------15-------13--13-13-13-------13--|
G||-----------------------------------------------------------------------|
D||-----------------------------------------------------------------------|
A||-----------------------------------------------------------------------|
E||-----------------------------------------------------------------------|
                                                x2
e|--14-12h14p12-11------------------11-12-14-15--||-------------15~~------|
B|-----------------13-12-13-/s15-13--------------||--17~~-17-19-------19--|
G|-----------------------------------------------||-----------------------|
D|-----------------------------------------------||-----------------------|
A|-----------------------------------------------||-----------------------|
E|-----------------------------------------------||-----------------------|

e|--15h17p15s14-19-15-12h15p12-------------------------------15-14----15--|
B|-----------------------------13~-15b(17)r(15)-15b(17)r(15)-------12-----|
G|------------------------------------------------------------------------|
D|------------------------------------------------------------------------|
A|------------------------------------------------------------------------|
E|------------------------------------------------------------------------|

e|--14--------------------------------------------------------------------|
B|-----12h15p12-------15------15------------------------------------------|
G|--------------12-14-14b(16)-14b(16)r(14)----12--------12-15-12-11-------|
D|-----------------------------------------14----14--12-------------12----|
A|------------------------------------------------------------------------|
E|------------------------------------------------------------------------|

e|----------------------------------------------------------15-14-11h12p--|
B|----------------------------------------------------12------------------|
G|--14-12-11h12p11----------------------------9-11-12----12---------------|
D|-----------------10~----9-10--9-10-12-10-12-----------------------------|
A|---------------------12-------------------------------------------------|
E|------------------------------------------------------------------------|

e|--(12)p11----s19--||-----19-15----17-14--------------17-14----15-12-----|
B|----------12------||--17-------17-------15--15-15-15-------15-------13--|
G|------------------||----------------------------------------------------|
D|------------------||----------------------------------------------------|
A|------------------||----------------------------------------------------|
E|------------------||----------------------------------------------------|
                                                                     x2
e|-----------15-12-------14-12h14p12-11------------------11-12-14-15--||
B|--13-13-13-------13-------------------13-12-13-/s15-13--------------||
G|--------------------------------------------------------------------||
D|--------------------------------------------------------------------||
A|--------------------------------------------------------------------||
E|--------------------------------------------------------------------||


 --------------------
| h   hammer-on      |
| p   pull-off       |
| b   bend           |
| r   bend release   |
| s   slide up/down  |
| ~   vibrato        |
 --------------------
        
Suggest correction
Give kudos to tab author, rate the tab!
1 2 3 4 5
comments
print report bad tab
guest
You may want to rate the tab now too:
select rating
Please do not post tabs as comments. Select "correction" instead!