Oops, an error
Loading. Please wait.
We have an official Master Of Puppets tab made by UG professional guitarists. Check out the tab »
×
5,428 views 6 this week
no commentswrite comment
1 2 3 4 5
x 9
add to favorites
×
Save as Personal and add changes to this tab that will be seen only by you. Learn more ›
×
You can save this tab as Personal to edit and correct it or add notes. All changes will be seen only by you. Learn more »
save as personal
new!
launch autoscroll
font size
0
reset
guitar tuner
backing track
0:00
0:00
Autoscroll
slow
fast
+/-
esc
set tempo
stop
Author
song name-Master of puppets
Artist-Metallica
Bassist-Cliff Burton
Album-Master of puppets
Email-zell3@hotmail.com

INTRO
X4
G|-------------------------------------------------------------------------|
D|-------------------------------------------------------------------------|
A|---5-4-3-----------------------------------------------------------------|
E|-0-------r--0-0-r--------------------------------------------------------|


G|-------------------------------------------------------------------------|
D|-------------------------------------------------------------------------|
A|-------------------------------------------------------------------------|
E|-0-0-0-r-0-0-0-0-0-------------------------------------------------------|

INTRO 2
X5
G|-------------------------------------------------------------------------|
D|-------------------------------------------------------------------------|
A|---2---3---4----3---2-2----3-----4-----3-----2(hold)---------------------|
E|0-1-0-1-0-1-0-1--0-1---0-1---0-1---0-1---0-1-----------------------------|


G|-------------------------------------------------------------------------|
D|-------------------------------------------------------------------------|
A|-------------------------------------------------------------------------|
E|-2\3-2\3-2\3-2\3-2\3-2\3-----12/-----------------------------------------|

VERSE
X7
G|-------------------------------------------------------------------------|
D|-------------------------------------------------------------------------|
A|-------------------------------------------------------------------------|
E|0-0-0-0-3\5-6/5-3\5-0-0-0-0-3\5-3\5--------------------------------------|

X2
G|-------------------------------------------------------------------------|
D|-------------------------------------------------------------------------|
A|-------------------------------------------------------------------------|
E|-2-2-2-2-5\7-8/7-5\7-2-2-2-2-5\7-5\7-7-7-7-7-7-7-------------------------|

PRE CHORUS
X3
G|-------------------------------------------------------------------------|
D|--------------------------------------1----------------------------------|
A|-7-----5-7--------3-3-3-3-2-2-3-3-3-3---2--------------------------------|
E|---0-0-----0-2-3---------------------------------------------------------|


G|-------------------------------------------------------------------------|
D|-------------------------------------4-2-1-1-----------------------------|
A|-7-----5-7-------3-3-3-3-2-2-3-3-3-3---------3-2-------------------------|
E|---0-0-----0-2-3--------------------------------0-0-1-1------------------|

CHORUS

G|-------------------------------------------------------------------------|
D|-------------------------------------------------------------------------|
A|-----------------------------2-0-0-0-2-0-0-3-----------------------------|
E|-2-0-0-0-2-0-0-3-3-0-0-2-0-3----------------0-0-1-1--2-0-0-2-0--3-0-0-1-1|

CLASSICAL SOLO
X7
G|-------------------------------------------------------------------------|
D|---9-9-9-----------------------------------------------------------------|
A|-7-------7--5-5-5-5-5---5-5-5--3-3-3-3-3---3-2-2-2-0-2-6-6-6-0-6---------|
E|----------------------5------------------3-------------------------------|

BRIDGE

G|-------------------------------------------------------------------------|
D|-------------------------------------------------------------------------|
A|-------------------------------------------------------------------------|
E|-0-0-0-0-1-1-1-1-2-2-2-2-3-3-3-3-4-4-4-4-5-5-5-5-------------------------|


(MUTE BY PLACING THE INDEX FINGER LIGHTLY ON THE STRING)
G|-------------------------------------------------------------------------|
D|-------------------------------------------------------------------------|
A|-------------------------------------------------------------------------|
E|X-X-X-X-X-X-X-X-X-X-X-X-X-X-X-X-X-X-X-X-X-X-X-X-X-X-X-X-X-X-X-X-X-X-X-X-X|

THE REST OF THE SONG IS JUST REPEATS OF PARTS, YOU CAN WORK IT OUT
| /  slide up
| \  slide down
| h  hammer-on
| p  pull-off
| ~  vibrato
| +  harmonic
| x  Mute note
Suggest correction
comments
print report bad tab
guest
You may want to rate the tab now too:
select rating
Wanna post a correction for this tab? Suggest correction