Oops, an error
Loading. Please wait.

Master Of Puppets Bass Tab

version 3
5,329 views 1 this week
no commentswrite comment
1 2 3 4 5
x 9
add to favorites
launch autoscroll
font size
0
reset
guitar tuner
Autoscroll
slow
fast
+/-
esc
set tempo
stop
Help us to improve Ultimate-Guitar.com Take our survey!
×
Author
song name-Master of puppets
Artist-Metallica
Bassist-Cliff Burton
Album-Master of puppets
Email-zell3@hotmail.com

INTRO
X4
G|-------------------------------------------------------------------------|
D|-------------------------------------------------------------------------|
A|---5-4-3-----------------------------------------------------------------|
E|-0-------r--0-0-r--------------------------------------------------------|


G|-------------------------------------------------------------------------|
D|-------------------------------------------------------------------------|
A|-------------------------------------------------------------------------|
E|-0-0-0-r-0-0-0-0-0-------------------------------------------------------|

INTRO 2
X5
G|-------------------------------------------------------------------------|
D|-------------------------------------------------------------------------|
A|---2---3---4----3---2-2----3-----4-----3-----2
            
                            
Suggest correction
comments
print report bad tab
guest
You may want to rate the tab now too:
select rating
Wanna post a correction for this tab? Suggest correction