Oops, an error
Loading. Please wait.

Metal Militia Tab

version 1
version 1

Whole song

92,587 views 186 this week
13 commentsread comments
1 2 3 4 5
accurate
x 40
add to favorites
launch autoscroll
font size
0
reset
how to read this tab
guitar tuner
Autoscroll
slow
fast
+/-
esc
set tempo
stop
Help us to improve Ultimate-Guitar.com Take our survey!
×
[Intro]

                                Rhythm Fig.1

e|------------|----------------||--------------------------------------------|
B|------------|----------------||*-------------------------------------------|
G|------------|----------------||--------------------------------------------|
D|------------|----------------||--------------------------------------------|
A|--------3/--|--8----8--7--5--||*-----------------------------------5----7--|
E|--------1/--|--6----6--5--3--||---0--0--0--0--0--0--0--0--0--0--0--3----5--|

                                  PM..............................]          

e|-------------------------------------------|-------------------------------------------|
B|-------------------------------------------|-------------------------------------------|
G|-------------------------------------------|-------------------------------------------|
D|-------------------------------------------|-------------------------------------------|
A|-----------------------------------8----7--|-----------------------------------5----7--|
E|--0--0--0--0--0--0--0--0--0--0--0--6----5--|--0--0--0--0--0--0--0--0--0--0--0--3----5--|

  PM..............................]           PM..............................]


e|-------------------------------------------|------------------------------------||
B|-------------------------------------------|-----------------------------------*||
G|-------------------------------------------|------------------------------------||
D|-------------------------------------------|------------------------------------||
A|-----------------------------------5----7--|--------------------------8--7--5--*||
E|--0--0--0--0--0--0--0--0--0--0--0--3----5--|--3--3--3--3--3--3--3--3--6--5--3---||

  PM..............................]           PM.....................]

                                                         ___________________
 w/ Rhy.Fig.1(4 times) (4th time 1st 3 bars only)       | 1.2.3.            | 

e||----------------|------------------|------------------|-------------------||
B||*---------------|------------------|------------------|------------------*||
G||----------------|------------------|------------------|-------------------||
D||----------------|------------------|------------------|-------------------||
A||*---------------|------------------|------------------|------------------*||
E||----------------|------------------|------------------|-------------------||


 4.                                                                    

e|--------------------------|--------------------|---------------|
B|--------------------------|--------------------|---------------|
G|--------------------------|--------------------|---------------|
D|--------------------------|--------------------|---------------|
A|--------------------------|--8--7--5--8--7--5--|--7--------12\-|
E|--0--0--0--0--0--0--0--0--|--6--5--3--6--5--3--|--5------------|

  PM......................]


  Rhythm Fig. 2      play 3 times          end Rhy. Fig. 2                     play 3 times

e||-------------------------------||-----------------------||-------------------------------||
B||*-----------------------------*||-----------------------||*-----------------------------*||
G||-------------------------------||-----------------------||-------------------------------||
D||-----7-----5-----2-----1----0--||--8\3--5---------------||-----7-----5-----2-----1----0--||
A||*-0-----0-----0-----0---------*||--6\1-----3---5--7--8--||*-0-----0-----0-----0---------*||
E||-------------------------------||--------------3--5--6--||-------------------------------||


                           w/ Rhy. Fig. 2                                      

e||-----------------------||-------------|------------|------------|-------------|
B||-----------------------||*------------|------------|------------|------------*|
G||-----------------------||-------------|------------|------------|-------------|
D||--8\3----5-------------||-------------|------------|------------|-------------|
A||--6\1----3----5--7--8--||*------------|------------|------------|------------*|
E||--------------3--5--6--||-------------|------------|------------|-------------|
                                                                                


 w/ Rhy. Fig. 2

e|---------|---------|---------|---------|---------|---------|---------|---------|--------|
B|---------|---------|---------|---------|---------|---------|---------|---------|--------|
G|---------|---------|---------|---------|---------|---------|---------|---------|--------|
D|---------|---------|---------|---------|---------|---------|---------|---------|--------|
A|---------|---------|---------|---------|---------|---------|---------|---------|--------|
E|---------|---------|---------|---------|---------|---------|---------|---------|--------|
1. Thunder...       Senseless...         Victims...          Running...         Stabbing..

      

e|---------|---------|---------|---------|---------|---------|---------|
B|---------|---------|---------|---------|---------|---------|---------|
G|---------|---------|---------|---------|---------|---------|---------|
D|---------|---------|---------|---------|---------|---------|---------|
A|---------|---------|---------|---------|---------|---------|---------|
E|---------|---------|---------|---------|---------|---------|---------|
          Leaving...           Suicide...          Ripping...                


[Pre-Chorus]

e|-------------------|----------------|-----------|-------------|
B|-------------------|----------------|-----------|-------------|
G|-------------------|----------------|-----------|-------------|
D|--7--7------7------|--5----3--2--2--|--7--------|--5----3--5--|
A|--5--5------5------|--3----1--0--0--|--5--------|--3----1--3--|
E|-------------------|----------------|-----------|-------------|
 Oh!


[Chorus]

 Rhy. Fig. 3

e|-------------------------------------------|-------------------------------------------|
B|-------------------------------------------|-------------------------------------------|
G|-------------------------------------------|-------------------------------------------|
D|-----------------------------------3----7--|-----------------------------------8----7--|
A|--0--0--0--0--0--0--0--0--0--0--0--1----5--|--0--0--0--0--0--0--0--0--0--0--0--6----5--|
E|-------------------------------------------|-------------------------------------------|

  PM..............................]           PM..............................]


                                                              3rd time to CODA 2
                                                                  end Rhy. Fig.3  

e|-------------------------------------------|-----------------------------------|
B|-------------------------------------------|-----------------------------------|
G|-------------------------------------------|-----------------------------------|
D|-----------------------------------3----7--|--------------------------8--7--5--|
A|--0--0--0--0--0--0--0--0--0--0--0--1----5--|--0--0--0--0--0--0--0--0--6--5--3--|
E|-------------------------------------------|-----------------------------------|

  PM..............................]           PM.....................]


                                       4th time to CODA 1  __________________
 w/ Rhy. Fig.3(3 times) (3rd time 1st 3 bars only)        | 1.2.             |

e||------------------|------------------|------------------|------------------||
B||*-----------------|------------------|------------------|-----------------*||
G||------------------|------------------|------------------|------------------||
D||------------------|------------------|------------------|------------------||
A||*-----------------|------------------|------------------|-----------------*||
E||------------------|------------------|------------------|------------------||


 Rhy. Fig. 4                                    end Rhy. Fig.4
 3.                           

e|--------------------------|--------------------|------------|
B|--------------------------|--------------------|------------|
G|--------------------------|--------------------|------------|
D|--------------------------|--8--7--5--8--7--5--|--7---------|
A|--0--0--0--0--0--0--0--0--|--6--5--3--6--5--3--|--5---------|
E|--------------------------|--------------------|------------|

  PM.....................]


[CODA 1]

 w/ Rhy. Fig.4
 
e|-------------|-------------|------------|
B|-------------|-------------|------------|
G|-------------|-------------|------------|
D|-------------|-------------|------------|
A|-------------|-------------|------------|
E|-------------|-------------|------------|


[Solo]

e|--------------------------------|----8---------------------8--------7--|
B|---------12--------10--------9--|--8b9-------r8----b9----8b9-----------|
G|-----10------8--9---------8-----|--------------------------------------|
D|--9--------------------7--------|--------------------------------------|
A|--------------------------------|--------------------------------------|
E|--------------------------------|--------------------------------------|


e|--10p7------7--10p7---------------------------------|
B|--------10-----------10--7--7--7--10p7--------------|
G|----------------------------------------9--7-----7--|
D|----------------------------------------------9-----|
A|----------------------------------------------------|
E|----------------------------------------------------|


e|---------------------------------------------|--------------------------------|
B|---------------------------------------------|--------------------------------|
G|--9--7-----7--9--7---------------------------|--------------------------------|
D|--------9-----------9--7--9p7-----7--9p7-----|--------------------------------|
A|-------------------------------9----------9--|--9\7--5----7--5-------5-~------|
E|---------------------------------------------|------------------7-------------|


e|--------------------------------------|------------------------10p7--------------------|
B|--------------------------------------|----------------7--10p7------10--7------7--10p7-|
G|---------------------------------7--9-|-9p7---7--9b11----------------------10----------|
D|--------------X--7--9p7----7--9-------|-----9------------------------------------------|
A|------5--5/9------------9-------------|------------------------------------------------|
E|-5h7----------------------------------|------------------------------------------------|


e|--10p7--------------------------------------------|
B|--------10--7------7--10p7------------------------|
G|---------------10-----------9--7-----{9}b11------r|
D|----------------------------------9---------------|
A|--------------------------------------------------|
E|--------------------------------------------------|


e|------------------------------------------7--|
B|------------------------------------/7-------|
G|--{9}b11----9b11----9b11-~------r9--/7-------|
D|---------------------------------------------|
A|---------------------------------------------|
E|---------------------------------------------|


e|--9--7--7--9--10--10--9--10--12--12--10--12--14--14--12--13--15--|
B|-----------------------------------------------------------------|
G|-----------------------------------------------------------------|
D|-----------------------------------------------------------------|
A|-----------------------------------------------------------------|
E|-----------------------------------------------------------------|


e|--15--14--14--15--17----16--17--19----17--19--20----19----|
B|----------------------------------------------------------|
G|----------------------------------------------------------|
D|----------------------------------------------------------|
A|----------------------------------------------------------|
E|----------------------------------------------------------|


e|--22b24----r--b24--22b24------22b25--|--22b25---r--19h22p19----19--19--|
B|-------------------------------------|---------------------------------|
G|-------------------------------------|---------------------------------|
D|-------------------------------------|---------------------------------|
A|-------------------------------------|---------------------------------|
E|-------------------------------------|---------------------------------|


e|--22p19------19--22p19-------------------------19h22p19----------|
B|---------22-------------22--19------19--22p19------------22--19--|
G|--------------------------------22-------------------------------|
D|-----------------------------------------------------------------|
A|-----------------------------------------------------------------|
E|-----------------------------------------------------------------|


e|-----------------19h22p19---------------------------------------|
B|------19--22p19------------22--19--19--22p19---------19--22p19--|
G|--22------------------------------------------21b23-------------|
D|----------------------------------------------------------------|
A|----------------------------------------------------------------|
E|----------------------------------------------------------------|


e|--------------------22p19\18---------------------------22p19\18---------|
B|---------19--22p19------------22p19---------19--22p19------------22p19--|
G|--21b23------------------------------21b23------------------------------|
D|------------------------------------------------------------------------|
A|------------------------------------------------------------------------|
E|------------------------------------------------------------------------|


e|-----------------------------------|-------------------------------------------------|
B|---------19--22p19------19--22p19--|--22b24---22b24---22b24---22b24---22b24---22b24--|
G|--21b23-------------21-------------|-------------------------------------------------|
D|-----------------------------------|-------------------------------------------------|
A|-----------------------------------|-------------------------------------------------|
E|-----------------------------------|-------------------------------------------------|
 
 
e|-------------------|
B|--22b24-~----------|
G|-------------------|
D|-------------------|
A|-------------------|
E|-------------------|

 
[Interlude]

e|-----------|----------|--------------------------------------------------|
B|-----------|----------|--------------------------------------------------|
G|-----------|----------|--------------------------------------------------|
D|--2--------|----------|--------------------------------------------------|
A|--0--------|----------|--0--0--0--0--0--0--0--0--0--0--0--0--0--0--0--0--|
E|-----------|----------|--------------------------------------------------|

                         PM.............................................]

                                                                     play 4 times

e|--------------------------------------------------||-------------------------------||
B|--------------------------------------------------||*-----------------------------*||
G|--------------------------------------------------||-------------------------------||
D|--------------------------------------------------||---8----3----5-----------------||
A|--0--0--0--0--0--0--0--0--0--0--0--0--0--0--0--0--||*--6----1----3----5--5--7--3--*||
E|--------------------------------------------------||------------------3--3--5--1---||

  PM.............................................]

                        play 4 times

e||-----------------------------------||-----------------------------------||
B||*---------------------------------*||*---------------------------------*||
G||-----------------------------------||-----------------------------------||
D||--------5----7------------4--------||--------6----8----3--3----5--------||
A||*--3----3----5----7--7----2----5--*||*--4----4----6----1--1----3----6--*||
E||---1--------------5--5---------3---||---2---------------------------4---||


e||-------------------------------------||-------------------------------------------|
B||*-----------------------------------*||-------------------------------------------|
G||-------------------------------------||-------------------------------------------|
D||----------7---------4--4----6--------||-------------------------------------------|
A||*--5------5----2----2--2----4----7--*||--7--7----5--5-----------------------------|
E||---3-----------0-----------------5---||------------------8--8----7--7----5--7--8--|

                                            D.S.al CODA 2 

e|-------------------------------------------|-----------|
B|-------------------------------------------|-----------|
G|-------------------------------------------|-----------|
D|-------------------------------------------|-----------|
A|-------------------------------------------|--2--------|
E|--8--8----7--7----5--5----3--3----2--3--5--|--0--------|


[CODA 2]

 w/ Rhy. Fig. 3               Repeat and fade

e|----------|----------|----------|----------||
B|*---------|----------|----------|---------*||
G|----------|----------|----------|----------||
D|----------|----------|----------|----------||
A|*---------|----------|----------|---------*||
E|----------|----------|----------|----------||




************************************

| h  Hammer-on
| p  Pull-off
| r  Release
| b  Bend
| /  Slide up
| \  Slide down
| ~  Vibrato

************************************
Suggest correction
comments
print report bad tab
13 comments total. Showing first comments.
0 reply
hethamulburton 90 wrote on June 19 2004, 12:00 am

thanx guys i was just sick of the poor ratings for this tab prior to my post

+1 reply
crazybryan 30 wrote on June 20 2004, 12:00 am

Dude, you have some major mistakes on most of the riffs, and a lot in the solo. I know I have the book for Kill 'Em All. It's a 3 of 5.

0 reply
hethamulburton 90 wrote on June 21 2004, 12:00 am

fix it then and itll be fine
then we will have no problems

guest
You may want to rate the tab now too:
select rating
Wanna post a correction for this tab? Suggest correction