Oops, an error
Loading. Please wait.

Metal Militia Bass Tab

version 2
version 2

Whole song

6,020 views 3 this week
no commentswrite comment
1 2 3 4 5
please rate
add to favorites
launch autoscroll
font size
0
reset
guitar tuner
Autoscroll
slow
fast
+/-
esc
set tempo
stop
Help us to improve Ultimate-Guitar.com Take our survey!
×
Author
Difficulty
intermediate
Song: Metal Militia
Band: Metallica
Album: Kill 'em All
Year: 1983
Genre: Thrash Metal
Composers: James Hetfield, Lars Ulrich, Dave Mustaine
Bass player: Cliff Burton (R.I.P.)
P=Pulloff

Intro
|--------------|--------------|--------------|
|--------------|--------------|--------------|
|--------------|--------------|--------------|
|--------6-5-3-|0-------------|--------6-5-3-|

Main riff
|------------------|------------------|------------------|------------------|
|------------------|------------------|------------------|------------------|
|------------------|------------------|------------------|------------------|
|0000000000003-5---|0000000000006-5---|0000000000003-5---|0000000000006-5-3-|
Play that 3 times
Then play:
|-----------------|-----------------|-----------------|-----------------|---------------|
|-----------------|-----------------|-----------------|-----------------|---------------|
|-----------------|-----------------|-----------------|-----------------|---------------|
|0000000000003-5--|0000000000006-5--|0000000000003-5--|0000000000006-5-3|6-5-3-5-------|

Fill:
|---------------|---------------|---------------|--------------|
|---------------|---------------|---------------|1-3-----------|
|0--------------|0--------------|0--------------|----1---------|
|---------------|---------------|---------------|--------3-4-5-|

Verse
|-----------|
|-----------|
|7-5--------|
|----5-4p3p0|
Play that 3 times
Then play:
|--------------|
|1-------------|
|--1-3---------|
|--------3-4-5-|
Play all this 6 times

Pre-Chorus
|----------------|-----------------|---------------|----------------|
|----------------|-----------------|---------------|----------------|
|----------------|-----------------|---------------|----------------|
|10--10--10--10--|8---8---7---5---|10--10--10--10--|8---8---7---8---|

Solo
|------------------|------------------|------------------|------------------|
|------------------|------------------|------------------|------------------|
|------------5-7---|------------8-7---|-------------5-7--|------------8-7-5-|
|777777777777------|777777777777------|777777777777------|777777777777------|

Fill 2
|------------------|------------------|------------------|
|------------------|7-7-7-7-7-7-7-7-7-|7-7-7-7-7-7-7-7-7-|
|0-----------------|------------------|------------------|
|------------------|------------------|------------------|

Bridge
|--------------|
|1-------------|
|--1-3---------|
|--------3-4-5-| x4

|--------------|
|3-5-----------|
|----3---------|
|--------5-6-7-|x4

|--------------|
|5-7-----------|
|----5---------|
|--------7-8-9-|x4

Outro
|------------------|------------------|------------------|------------------|
|------------------|------------------|------------------|------------------|
|------------------|------------------|------------------|------------------|
|0000000000003-5---|0000000000006-5---|0000000000003-5---|0000000000006-5-3-|


Structure:
Intro
Main riff
Fill
Verse
Pre-chorus
Main riff
Verse
Pre-chorus
Main riff
Solo
Fill 2
Bridge
Verse
Pre-chorus
Main riff
Outro (Repeat, fades away)
Suggest correction
Give kudos to tab author, rate the tab!
1 2 3 4 5
comments
print report bad tab
guest
You may want to rate the tab now too:
select rating
Wanna post a correction for this tab? Suggest correction