Oops, an error
Loading. Please wait.

Minus Human Bass Tab

version 1
version 1

Whole song

Interactive

1,216 views 1 this week
1 commentread comment
1 2 3 4 5
please rate
add to favorites
launch autoscroll
font size
0
reset
guitar tuner
Autoscroll
slow
fast
+/-
esc
set tempo
stop
Help us to improve Ultimate-Guitar.com Take our survey!
×
- Human
Written by Metallica 
As performed live with the San Francisco Symphony
Tab by Drew Jamieson; jjamieson@home.com


Tune all guitars down 1 1/2 steps (C# tuning)
Low to high C#, F#, B, E
Symphony intro

1)
E-----------------------------------------
B-----------------------------------------
F#----------------------------------------
C#--0--0-7~~0-6~~5-0-3---0-7-6-0-2-3--3--0
 

2)
E----------------
B----------------
F#---------------
C#--0---6-7-6-5-0


3)
E---------------------------------------
B---------------------------------------
F#--------------------------------------
C#--0--3--5--0--6-7-6-5-0--3--5--7-7-7-7
"Don't you leave me father time."
Verse


comments
We did not receive enough feedback on this tab! Please rate:
print report bad tab
1 2 3 4 5
1 comment total.
0 reply
dawdy666 54 wrote on January 30 2006, 07:22 pm

dude the intro is really wrong like no offence but heres how it really goes

E-0-0-0-7~-0-6~-303-0-0-0-76-0-2-3-3

I want to post or [tab]
guest
You may want to rate the tab now too:
select rating
Please do not post tabs as comments. Select "correction" instead!