Oops, an error
Loading. Please wait.

Minus Human Bass Tab

version 2
version 2

Whole song

Interactive

1,121 views 1 this week
3 commentsread comments
1 2 3 4 5
2 more votes to show rating
add to favorites
launch autoscroll
font size
0
reset
guitar tuner
Autoscroll
slow
fast
+/-
esc
set tempo
stop
Help us to improve Ultimate-Guitar.com Take our survey!
×
Author
Song: -Human
Band: Metallica
Tabbed by: cianormo
Altered by: Scardz

This song’s got a killer riff but I haven’t seen many tabs for it.

4 string

Chorus
F#|------------------------------------------------|
C#|------------------------------------------------|
G#|------------------------------------------------|
C#|0-3-0-7-----0-6---5-0-3---0-3-0-7--6-0-2-2--3---|

Fill
F#|------------------------------------------------|
C#|------------------------------------------------|
G#|------------------------------------------------|
C#|0--------0--------0--------0-----5-7-5-3--------| x2

F#|------------------------------------------------|
C#|------------------------------------------------|
G#|------------------------------------------------|
C#|0--------0--------0--------0-----5-7-5-3-7-5-3-1|

Verse
F#|------------------------------------------------|
C#|------------------------------------------------|
G#|------------------------------------------------|
C#|0-0-0-0-0-0-0-0-3-3-3-3-3-3-3-3-5-5-5-5-5-5-5-5-|

F#|------------------------------------------------|
C#|------------------------------------------------|
G#|------------------------------------------------|
C#|0-------0-------0---------0-----5-7-5-3---------|

F#|------------------------------------------------|
C#|------------------------------------------------|
G#|------------------------------------------------|
C#|0-0-0-0-0-0-0-0-3-3-3-3-3-3-3-3-5-5-5-5-5-5-5-5-|

F#|------------------------------------------------|
C#|------------------------------------------------|
G#|------------------------------------------------|
C#|7-7-7-7-7-7-7-7---------------------------------|

Bridge
F#|------------------------------------------------|
C#|------------------------------------------------|
G#|------------------------------------------------|
C#|0r--------------------------------------/12/----|

End
F#|------------------------------------------------|
C#|------------------------------------------------|
G#|------------------------------------------------|
C#|0-3-0-7-----0-6-----------0-3-0-7--6-0-3-3--3---|




5 string

Chorus
G|------------------------------------------------|
D|------------------------------------------------|
A|------------------------------------------------|
E|--0---4-------3---2---0-----0---4--3--------0---|
B|2---2-------2-------2-----2---2------2-4-4------|

Fill
G|------------------------------------------------|
D|------------------------------------------------|
A|------------------------------------------------|
E|---------------------------------2-4-2-0--------|
B|2--------2--------2--------2--------------------| x2

G|------------------------------------------------|
D|------------------------------------------------|
A|------------------------------------------------|
E|---------------------------------2-4-2-0-4-2-0--|
B|2--------2--------2--------2-------------------3|

Verse
G|------------------------------------------------|
D|------------------------------------------------|
A|------------------------------------------------|
E|----------------0-0-0-0-0-0-0-0-2-2-2-2-2-2-2-2-|
B|2-2-2-2-2-2-2-2---------------------------------|

G|------------------------------------------------|
D|------------------------------------------------|
A|------------------------------------------------|
E|---------------------------------2-4-2-0--------|
B|2--------2--------2--------2--------------------|

G|------------------------------------------------|
D|------------------------------------------------|
A|------------------------------------------------|
E|----------------0-0-0-0-0-0-0-0-2-2-2-2-2-2-2-2-|
B|2-2-2-2-2-2-2-2---------------------------------|

G|------------------------------------------------|
D|------------------------------------------------|
A|------------------------------------------------|
E|2-2-2-2-2-2-2-2---------------------------------|
B|------------------------------------------------|

Bridge
G|------------------------------------------------|
D|------------------------------------------------|
A|------------------------------------------------|
E|------------------------------------------------|
B|2r--------------------------------------/14/----|

End
G|------------------------------------------------|
D|------------------------------------------------|
A|------------------------------------------------|
E|--0---4-------3-------------0---4--3---0-0--0---|
B|2---2-------2-------------2---2------2----------|

Song Structure
Orchestra intro. No bass until 0:35
Chorus x4
Fill x2
Verse x1
Fill x1
Chorus x2
Fill x1
Verse x1
Fill x1
Chorus x2
Bridge x1
Chorus x1
End x1

And there it is. If you’ve any corrections tell me.

Please rate.

Enjoy!!!
Suggest correction
Give kudos to tab author, rate the tab!
1 2 3 4 5
comments
print report bad tab
3 comments total.
0 reply
Maitinin 19,542 Aug 16, 2006 10:59 AM

is this from the coming album?

0 reply
alcholbrewtalty 25 Aug 16, 2006 10:34 PM

^^^this song is from S+M.

0 reply
Scardz 10 Sep 05, 2006 11:32 PM

this is the only tab I have taken notice of for this song. i've had a go at playin it on 4-string and i think it sounds like this, tell me if my ears are funny...

Tuning dropped 3 semi-tones (C# tuning)
Intro/Chorus:
I-------------------------------------------I
I-------------------------------------------I
I-------------------------------------------I
I--0-3-0-7~~0-6~~3-0-3~~~~0-3-0-7-6-0-2-3-3-I

Fill
I-------------------------------------------I
I-------------------------------------------I
I-------------------------------------------I
I--0------0-------0-------0----5--7--5--3---I

Same variation at the end as I have put in the intro/chorus riff. killer song!

tell me if im wrong...

guest
You may want to rate the tab now too:
select rating
Wanna post a correction for this tab? Suggest correction