Oops, an error
Loading. Please wait.

Minus Human Bass Tab

version 3
version 3

Whole song

Interactive

1,584 views 1 this week
2 commentsread comments
1 2 3 4 5
please rate
add to favorites
launch autoscroll
font size
0
reset
guitar tuner
Autoscroll
slow
fast
+/-
esc
set tempo
stop
Help us to improve Ultimate-Guitar.com Take our survey!
×
Difficulty
novice
Minus Human

Key:
~ = Ring
^ = Bend

Symphony intro

Intro/Chorus
E---------------------------------------------|
B---------------------------------------------| x4
F#--------------------------------------------|
C#--0--0-7~-0-6~-3-0-3---0-7-6-0-2-3--3--0----|

Bridge
E------------------------------------|-------------------------|---------------------------|
B-----------------------------------|--------------------------|---------------------------|
F#-------------------------------|----------------------------|----------------------------| x1
C#--0~-0~-0~-0~-6-7-6-5-0--|--0~-0~-0~-0~--5-7-7------|--0~-0~-0~-0~-6-7-6-5-0--6-7-6-5-0--|

E------------------------------------|-------------------------|---------------------------|
B-----------------------------------|--------------------------|---------------------------|
F#-------------------------------|----------------------------|----------------------------| x1
C#--0~-0~-0~-0~-6-7-6-5-0--|--0~-0~-0~-0~--5-7-7------|--0~-0~-0~-0~-6-7-6-5-0--6-7-6-5-0--|

Verse
E---------------------------------------------------------|
B---------------------------------------------------------|
F#--------------------------------------------------------| x1
C#--0~~--3~~--5~~--0~~--6-7-6-5-0~~--3~~--5~~--7-7-7-7----|

Bridge
E------------------------------------|-------------------------|-------------------------|
B-----------------------------------|--------------------------|-------------------------|
F#-------------------------------|----------------------------|--------------------------| x1
C#--0~-0~-0~-0~-6-7-6-5-0--|--0~-0~-0~-0~--5-7-7----|--0~-0~-0~-0~-6-7-6-5-0--6-7-6-5-0--|

Intro/Chorus
E---------------------------------------------|
B---------------------------------------------| x2
F#--------------------------------------------|
C#--0--0-7~-0-6~-3-0-3---0-7-6-0-2-3--3--0----|

Bridge
E------------------------------------|-------------------------|-------------------------|
B-----------------------------------|--------------------------|-------------------------|
F#-------------------------------|----------------------------|--------------------------| x1
C#--0~-0~-0~-0~-6-7-6-5-0--|--0~-0~-0~-0~--5-7-7----|--0~-0~-0~-0~-6-7-6-5-0--6-7-6-5-0--|

Verse
E---------------------------------------------------------|
B---------------------------------------------------------|
F#--------------------------------------------------------| x1
C#--0~~--3~~--5~~--0~~--6-7-6-5-0~~--3~~--5~~--7-7-7-7----|

Bridge
E------------------------------------|-------------------------|-------------------------|
B-----------------------------------|--------------------------|-------------------------|
F#-------------------------------|----------------------------|--------------------------| x1
C#--0~-0~-0~-0~-6-7-6-5-0--|--0~-0~-0~-0~--5-7-7----|--0~-0~-0~-0~-6-7-6-5-0--6-7-6-5-0--|

Intro/Chorus
E---------------------------------------------|
B---------------------------------------------| x2
F#--------------------------------------------|
C#--0--0-7~-0-6~-3-0-3---0-7-6-0-2-3--3--0----|

Solo
E-------------------------------------------|
B-------------------------------------------|
F#------------------------------------------|x1
C#---0---0---0---0---0---0---0--6-7-6-5-0---|

Final Chorus
E---------------------------------------------|
B---------------------------------------------| x1
F#--------------------------------------------|
C#--0--0-7~-0-6~-3-0-3---0-7-6-0-2-3--3--0----|

E------------------------------------------|
B------------------------------------------|
F#-----------------------------------------|
C#--0--0-7~-0-6^~--0--0-7-6-0-2-3--3-------|
Suggest correction
Give kudos to tab author, rate the tab!
1 2 3 4 5
comments
print report bad tab
2 comments total.
0 reply
METSOAD 1,622 wrote on November 28 2006, 11:33 am

this looks right to me

0 reply
>RiotAct< 91 wrote on December 16 2006, 06:06 am

It fits perfectly with the song and it simple to follow

guest
You may want to rate the tab now too:
select rating
Please do not post tabs as comments. Select "correction" instead!