Oops, an error
Loading. Please wait.

Moth Into Flame Bass Tab

version 1
version 1

Whole song

  • Bass tab for the entire song.
1,570 views 192 this week
no commentswrite comment
1 2 3 4 5
x 5
add to favorites
launch autoscroll
font size
0
reset
guitar tuner
Autoscroll
slow
fast
+/-
esc
set tempo
stop
Help us to improve Ultimate-Guitar.com Take our survey!
×
Author
Difficulty
intermediate
About this tab version
Bass tab for the entire song. Was this info helpful? Yes No
Metallica - Moth Into Flame
The latest single from Metallica's new album Hardwired.....to Self-destruct!
I noticed there wasn't any bass tabs out there so i decided to put one up.
Let me know what you guys think and don't forget to rate it. \m/

You can check out my cover here -> https://www.youtube.com/watch?v=B1VUrxJuqP4
Dont forget to subscribe too!

[Intro]

G|----------|----------|----------|----------|----------|-------------------------------|
D|----------|----------|----------|----------|----------|--------------------------5----|
A|7-8-7--5--|----------|----------|----------|----------|----------------7-8-7-5-7------|
E|---------0|-------0-0|---------0|-------0-0|----------|0-0-0-0-0-0-0-0-------------7-5|

G|--------------------------|--------------------------|
D|--------------------------|--------------------------| x2
A|--------------------------|--------------------------|
E|--1-1-0--0--0----0--0--0--|-1-1-0--0--0--1-1-0--1-1-0|

G|------------------|-------------------|
D|------------------|---------------7---|
A|------------------|-------------5---8-|
E|-1-1-0-0-0--0-0-0-|-1-1-0-0-5-6-------|
                   OR
G|------------------|-------------------|
D|------------------|---------------7-3-|  (Whichever feels more comfortable)
A|------------------|-------------5-----|
E|-1-1-0-0-0--0-0-0-|-1-1-0-0-5-6-------|

G|------------------|-------------------|-----------------|---------------------|
D|------------------|-------------------|-----------------|-------------7-------| x2
A|------------------|-------------------|-----------------|-----------5---8-----|
E|----0-0-0-0-0-1-1-|-0-0-0-0-0-0-1-1---|-0-0-0-0-0-0-1-1-|-0-0-0-5-6-----------|


[Verse 1] x4

G|-------------------------|----------------------------|-------------------------|
D|-------------------------|----------------------------|-------------------------|
A|-------------------------|----------------------------|-------------------------|
E|-1-1-0--0--0----0--0--0--|-1-1-0--0--0--1-1-0--1-1-0--|-1-1-0--0--0----0--0--0--|

G|-------------------|
D|---------------7---|
A|-------------5---8-|
E|-1-1-0-0-5-6-------|

[Pre-Chorus 1]

G|-----------------------------|--------------------------|----------------|
D|-----------------------------|--------------------------|----------------|
A|-------------------------8-5-|-7--------------------8-5-|-7---5----------|
E|--0-0-0-0-0-0-0-0-0-0-/7-----|---0-0-0-0-0-0-0-0-/7-----|---8---7--8-7---|

G|------------------------------|
D|------------------------------|
A|------------------------------|
E|-0-0-0-0-0-0-0-0-0-0-0-0-0-0-0|

G|-----------------------------|--------------------------|----------------|
D|-----------------------------|--------------------------|----------------|
A|-------------------------8-5-|-7--------------------8-5-|-7---5----------|
E|--0-0-0-0-0-0-0-0-0-0-/7-----|---0-0-0-0-0-0-0-0-/7-----|---8---7--8-7---|

G|------------------------------|
D|------------------------------|
A|------------------------------|
E|-0-0-0-0-0-0-0-0-0-0-0-0-0-0-0|

G|--------------------------------------|--------------------------------------|
D|--------------------------------------|--------------------------------------|
A|--------------------------------------|--------------------------------------|
E|-5-5-5-5--5-5--5-5--5-5--5-5-5-5--5-5-|---3--3--3-3-3-3--3-3-3-3--3-3-3-3-3-3|

G|--------------------------------------|--------------------------------------|
D|--------------------------------------|--------------------------------------|
A|--------------------------------------|-----------------------------------7--|
E|-5-5-5-5--5-5--5-5--5-5--5-5-5-5--5-5-|---3--3--3-3-3-3--3-3-3-3--3-3-3-8---8|


[Chorus 1]

G|------------------------|--------------------|-----------------------|-------------------|
D|------------------------|--------------------|-----------------------|-------------------| x2
A|------------------------|----------------7---|-----------------------|----------------7--|
E|--5-5-5-5-5--5-5-5-5-5--|-5-5-5-5-5---/8---8-|-3-3-3-3-3--3-3-3-3-3--|-3-3-3-3-3---/8---8|

G|------------------------|
D|------------------------| x3
A|-------------------7----|
E|--0-0-0----------8---8--|

[Post Chorus 1]

G|------------------|-------------------|-----------------|---------------------|
D|------------------|-------------------|-----------------|-------------7-------| x2
A|------------------|-------------------|-----------------|-----------5---8-----|
E|----0-0-0-0-0-1-1-|-0-0-0-0-0-0-1-1---|-0-0-0-0-0-0-1-1-|-0-0-0-5-6-----------|

[Verse 2] x2

G|-------------------------|----------------------------|-------------------------|
D|-------------------------|----------------------------|-------------------------|
A|-------------------------|----------------------------|-------------------------|
E|-1-1-0--0--0----0--0--0--|-1-1-0--0--0--1-1-0--1-1-0--|-1-1-0--0--0----0--0--0--|

G|-------------------|
D|---------------7---|
A|-------------5---8-|
E|-1-1-0-0-5-6-------|


[Pre-Chorus 2]

G|-----------------------------|--------------------------|----------------|
D|-----------------------------|--------------------------|----------------|
A|-------------------------8-5-|-7--------------------8-5-|-7---5----------|
E|--0-0-0-0-0-0-0-0-0-0-/7-----|---0-0-0-0-0-0-0-0-/7-----|---8---7--8-7---|

G|------------------------------|
D|------------------------------|
A|------------------------------|
E|-0-0-0-0-0-0-0-0-0-0-0-0-0-0-0|

G|-----------------------------|--------------------------|----------------|
D|-----------------------------|--------------------------|----------------|
A|-------------------------8-5-|-7--------------------8-5-|-7---5----------|
E|--0-0-0-0-0-0-0-0-0-0-/7-----|---0-0-0-0-0-0-0-0-/7-----|---8---7--8-7---|

G|------------------------------|
D|------------------------------|
A|------------------------------|
E|-0-0-0-0-0-0-0-0-0-0-0-0-0-0-0|

G|--------------------------------------|----------------------------------------|
D|--------------------------------------|----------------------------------------|
A|--------------------------------------|----------------------------------------|
E|-5-5-5-5--5-5--5-5--5-5--5-5-5-5--5-5-|---3--3--3-3-3-3--3-3-3-3--3-3-3-3-3-3--|

G|--------------------------------------|--------------------------------------|
D|--------------------------------------|--------------------------------------|
A|--------------------------------------|-----------------------------------7--|
E|-5-5-5-5--5-5--5-5--5-5--5-5-5-5--5-5-|---3--3--3-3-3-3--3-3-3-3--3-3-3-8---8|

[Chorus 2]

G|------------------------|--------------------|-----------------------|-------------------|
D|------------------------|--------------------|-----------------------|-------------------| x2
A|------------------------|----------------7---|-----------------------|----------------7--|
E|--5-5-5-5-5--5-5-5-5-5--|-5-5-5-5-5---/8---8-|-3-3-3-3-3--3-3-3-3-3--|-3-3-3-3-3---/8---8|

G|------------------------|
D|------------------------| x3
A|-------------------7----|
E|--0-0-0----------8---8--|

[Bridge and Solo]

G|-------------------------------------------|
D|-------------------------------------------|
A|-------------------------------------------|
E|0---3-5-6-0-0-0-0-0-0-0-0-0-0-0-0-0-0-0-0-0|

G|---------------------------------------|
D|---------------------------------------| x3
A|---------------------------------------|
E|3-5-6-0-0-0-0-0-0-0-0-0-0-0-0-0-0-0-0-0|


G|-------------------------------|-----------------------------|
D|-------------------------------|-----------------------------| x2
A|7-7-7-7-7-5--------------------|-----------------------------|
E|------------7-6-0-0-0-0-0-0-0-0|6-5-5-3-3-3-0-0-0-0-0-0-0-0-0|

G|---------------------------------------|
D|---------------------------------------| x8 
A|---------------------------------------|
E|3-5-6-0-0-0-0-0-0-0-0-0-0-0-0-0-0-0-0-0|

G|-------------------------------|-----------------------------|
D|-------------------------------|-----------------------------| x2
A|7-7-7-7-7-5--------------------|-----------------------------|
E|------------7-6-0-0-0-0-0-0-0-0|6-5-5-3-3-3-0-0-0-0-0-0-0-0-0|

This next bit involves a bit of improvisation but this is what I figure Robert plays
G|------------------------------|-----------------------------------|
D|----------------10-8----------|---12-12-12----12-12-12----12-12-12|
A|-----------8-10------10-8-----|-----------------------------------|
E|8-8-8-8-10----------------10-8|10----------10----------10---------|

G|-------------------------------|-------------------------------|
D|-------------------------------|-------------------------------|
A|7-7-7-7-7-5--------------------|7-7-7-7-7-5--------------------|
E|------------7-6-0-0-0-0-0-0-0-0|------------7-6-0-0-0-0-0-0-0-0|

G|------------------------------|-----------------------------------|
D|----------------10-8----------|-----------------------------------|
A|-----------8-10------10-8-----|-----------------------------------|
E|8-8-8-8-10----------------10-8|10-10-10-10-10-10-10-10-10-10-10-10|

G|-------------------------------|-------------------------------|
D|-------------------------------|-------------------------------|
A|7-7-7-7-7-5--------------------|7-7-7-7-7-5--------------------|
E|------------7-6-0-0-0-0-0-0-0-0|------------7-6-0-0-0-0-0-0-0-0|

G|-----------------------------|
D|-----------------------------| x2
A|-----------------------------|
E|6-5-5-3-3-3-0-0-0-0-0-0-0-0-0|

G|-----------------------------|
D|-----------------------------|
A|-----------------------------|
E|6-5-5-3-3-3-0----------0-0--0| (Let it ring)

[Pre Verse 3]

G|---------------|---------------|-------------------------------|
D|---------------|---------------|----------5---------------5----|
A|---------------|---------------|7-8-7-5-7---7-5-7-8-7-5-7------|
E|0-0-0-0-0-0-0-0|0-0-0-0-0-0-0-0|----------------------------7-5|

[Verse 3] x2

G|-------------------------|----------------------------|-------------------------|
D|-------------------------|----------------------------|-------------------------|
A|-------------------------|----------------------------|-------------------------|
E|-1-1-0--0--0----0--0--0--|-1-1-0--0--0--1-1-0--1-1-0--|-1-1-0--0--0----0--0--0--|

G|-------------------|
D|---------------7---|
A|-------------5---8-|
E|-1-1-0-0-5-6-------|

[Pre-Chorus 3]

G|-----------------------------|--------------------------|----------------|
D|-----------------------------|--------------------------|----------------|
A|-------------------------8-5-|-7--------------------8-5-|-7---5----------|
E|--0-0-0-0-0-0-0-0-0-0-/7-----|---0-0-0-0-0-0-0-0-/7-----|---8---7--8-7---|

G|------------------------------|
D|------------------------------|
A|------------------------------|
E|-0-0-0-0-0-0-0-0-0-0-0-0-0-0-0|

G|-----------------------------|--------------------------|----------------|
D|-----------------------------|--------------------------|----------------|
A|-------------------------8-5-|-7--------------------8-5-|-7---5----------|
E|--0-0-0-0-0-0-0-0-0-0-/7-----|---0-0-0-0-0-0-0-0-/7-----|---8---7--8-7---|

G|------------------------------|
D|------------------------------|
A|------------------------------|
E|-0-0-0-0-0-0-0-0-0-0-0-0-0-0-0|

G|--------------------------------------|----------------------------------------|
D|--------------------------------------|----------------------------------------|
A|--------------------------------------|----------------------------------------|
E|-5-5-5-5--5-5--5-5--5-5--5-5-5-5--5-5-|---3--3--3-3-3-3--3-3-3-3--3-3-3-3-3-3--|

G|--------------------------------------|--------------------------------------|
D|--------------------------------------|--------------------------------------|
A|--------------------------------------|-----------------------------------7--|
E|-5-5-5-5--5-5--5-5--5-5--5-5-5-5--5-5-|---3--3--3-3-3-3--3-3-3-3--3-3-3-8---8|

[Chorus 3]

G|------------------------|--------------------|-----------------------|-------------------|
D|------------------------|--------------------|-----------------------|-------------------| x2
A|------------------------|----------------7---|-----------------------|----------------7--|
E|--5-5-5-5-5--5-5-5-5-5--|-5-5-5-5-5---/8---8-|-3-3-3-3-3--3-3-3-3-3--|-3-3-3-3-3---/8---8|

G|------------------------|
D|------------------------| x3
A|-------------------7----|
E|--0-0-0----------8---8--|

[Post Chorus 3]

G|------------------|-------------------|-----------------|---------------------|
D|------------------|-------------------|-----------------|-------------7-------| x2
A|------------------|-------------------|-----------------|-----------5---8-----|
E|----0-0-0-0-0-1-1-|-0-0-0-0-0-0-1-1---|-0-0-0-0-0-0-1-1-|-0-0-0-5-6-----------|

[Outro]
"Addicted.......FLAME!"
G|-------------------------------|-----------------------------|
D|-------------------------------|-----------------------------|
A|-------------------------------|-----------------------------|
E|--------------6-0-0-0-0-0-0-0-0|6-5-5-3-3-3-0-0-0-0-0-0-0-0-0|

G|-------------------------------|-----------------------------|
D|-------------------------------|-----------------------------|
A|7-7-7-7-7-5--------------------|-----------------------------|
E|------------7-6-0-0-0-0-0-0-0-0|6-5-5-3-3-3-0-0-0-0-0-0-0-0-0|


G|-----------------------------|
D|-----------------------------|
A|-----------------------------|
E|6-5-5-3-3-3-0-0-0-0-0-0-0-0-0|

G|-----------------------------|
D|-----------------------------|
A|-----------------------------|
E|6-5-5-3-3-3-0----------0-0---|

G|---------------------------------|
D|----------5---------------5------|
A|7-8-7-5-7---7-5-7-8-7-5-7--------|
E|----------------------------7-5-0|

Enjoy playing it!
Suggest correction
comments
print report bad tab
guest
You may want to rate the tab now too:
select rating
Wanna post a correction for this tab? Suggest correction