Oops, an error
Loading. Please wait.

Moth Into Flame Tab

version 1
version 1

Intro

  • This is just the intro, but when I learn the rest ... Show more

Whole song

  • Entire song except for solo, which will be added shortly.
  • Contains full solo, all individual harmonies together and all guitar tracks.
5,923 views 135 this week
8 commentsread comments
1 2 3 4 5
x 3
add to favorites
launch autoscroll
font size
0
reset
how to read this tab
guitar tuner
Autoscroll
slow
fast
+/-
esc
set tempo
stop
Help us to improve Ultimate-Guitar.com Take our survey!
×
Author
Difficulty
intermediate
This tab is for the Moth Into Flame preview from the Hardwired... to Self Destruct trailer, 
and is not for the studio quality song.


SOLO 1 HAMMETT
e|---------------------------------------------------------------------------|
B|---------------------------------------------------------------------------|
G|---12*/////////-3b4-----3tr4---4b5-----------------------------------------|
D|---------------------------------------------------------------------------|
A|---------------------------------------------------------------------------|
E|---------------------------------------------------------------------------|


RIFF 1 VERSE
e|-------------------------------------------------------------------------------------------|
B|-------------------------------------------------------------------------------------------|
G|-------------------------------------------------------------------------------------------|
D|---------------------------------------------------------------------------------------7---|
A|-------------------------------------------------------------------------------------5---8-|
E|--1-0-0--0--0----0-1-0-1-0-0---1--0---1-0-0--1-0-0--1-0-0--0--0--0-1-0--1-0-0--0-5-6-------|

FILL 1 OUTRO
e|------------|
B|------------|
G|------------|
D|------------|
A|--------3-x-|
E|-1-0-0--1-x-|


************************************

| x   Dead note
| g   Grace note
| (n) Ghost note
| h   Hammer-on
| p   Pull-off
| r   Release
| >   Accented note
| t   Tapping
| b   Bend
| br  Bend release
| pb  Pre-bend
| pbr Pre-bend release
| /   Slide up
| \   Slide down
| ~   Vibrato
| s   Slap
| P   Pop
| PM  Palm mute
| TR  Trill
| /////// Dive bomb
************************************
Suggest correction
Give kudos to tab author, rate the tab!
1 2 3 4 5
comments
print report bad tab
8 comments total. Showing first comments. show 2 bad comments
+3 reply
Arunas 140 Sep 26, 2016 03:04 PM

Are you planning on doing the whole thing?

guest
You may want to rate the tab now too:
select rating
Wanna post a correction for this tab? Suggest correction