Oops, an error
Loading. Please wait.

Moth Into Flame Tab

version 2
version 2

Intro

  • This is just the intro, but when I learn the rest ... Show more

Whole song

  • Entire song except for solo, which will be added shortly.
  • Contains full solo, all individual harmonies together and all guitar tracks.
367 views 6 this week
no commentswrite comment
1 2 3 4 5
3 more votes to show rating
add to favorites
launch autoscroll
font size
0
reset
how to read this tab
guitar tuner
Autoscroll
slow
fast
+/-
esc
set tempo
stop
Help us to improve Ultimate-Guitar.com Take our survey!
×
Author
Difficulty
About this tab version
This is just the intro, but when I learn the rest of the song I will add it. Hope you enjoy. Was this info helpful? Yes No
[Intro]

e|---------------------------------------------------------------------------|
B|---------------------------------------------------------------------------|
G|-------9--10--9--7-----9--12--9--7-----------------------------------------|
D|---------------------------------------------------------------------------|
A|--------------------2---------------2--2-----------------------------------|
E|--------------------0---------------0--0-----------------------------------|

e|---------------------------------------------------------------------------|
B|---------------------------------------------------------------------------|
G|-------9--10--9--7-----9--12--9--7-----------------------------------------|
D|---------------------------------------------------------------------------|
A|--------------------2---------------2--2-----------------------------------|
E|--------------------0---------------0--0-----------------------------------|

e|---------------------------------------------------------------------------|
B|---------------------------------------------------------------------------|
G|-------9--10--9--7-----9--12--9--7-----------------------------------------|
D|---------------------------------------------------------------------------|
A|--------------------2---------------2--2-----------------------------------|
E|--------------------0---------------0--0-----------------------------------|

e|---------------------------------------------------------------------------|
B|---------------------------------------------------------------------------|
G|-------9--10--9--7-----9--12--9--7-----------------------------------------|
D|---------------------------------------------------------------------------|
A|--------------------2---------------2--2-----------------------------------|
E|--------------------0---------------0--0-----------------------------------|
Suggest correction
Give kudos to tab author, rate the tab!
1 2 3 4 5
comments
print report bad tab
guest
You may want to rate the tab now too:
select rating
Wanna post a correction for this tab? Suggest correction