Oops, an error
Loading. Please wait.

Moth Into Flame Tab

version 1
version 1

Whole song

  • Entire song except for solo, which will be added shortly.
  • Contains full solo, all individual harmonies together and all guitar tracks.
69,427 views 1,875 this week
12 commentsread comments
1 2 3 4 5
x 33
add to favorites
launch autoscroll
font size
0
reset
how to read this tab
guitar tuner
Autoscroll
slow
fast
+/-
esc
set tempo
stop
Help us to improve Ultimate-Guitar.com Take our survey!
×
Author
Tuning
sashki [tm] 2,364
E A D G B E
About this tab version
Entire song except for solo, which will be added shortly.
METALLICA
"Moth Into Flame"
From the album "Hardwired...To Self-Destruct" (2016)

Standard Tuning
Tempo = 183 bpm


[Intro]

e||---------------|----------|--------------|---------||
B||---------------|----------|--------------|---------||
G||--9--10-9---7--|----------|-9--12-9---7--|---------||
D||---------------|----------|--------------|---------|| x2
A||---------------|-2--------|--------------|-2-2-----||
E||---------------|-0--------|--------------|-0-0-----||


e|--------------|--------------|----------------|------------------|
B|--------------|--------------|----------------|------------------|
G|-9--10-9---7--|--------------|----------------|------------------|
D|--------------|--------------|----------------|------------------|
A|--------------|-7--8-7---5-7-|-(7)--10--7---5-7-|-(7)--8-7---5-7-|
E|--------------|--------------|----------------|------------------|


e|----------------|
B|----------------|
G|--------9--7----|
D|--------9--7----|
A|-7--10--7--5----|
E|--------7--5----|


e||--------------------------|----------------------------||
B||--------------------------|----------------------------||
G||--------------------------|----------------------------||
D||--------------------------|----------------------------|| x2
A||--------------------------|----------------------------||
E||--1-1-0--0--0----0--0--0--|-1-1-0--0--0--1-1-0--1-1-0--||


e|------------------|-------------------|
B|------------------|-------------------|
G|------------------|-------------------|
D|------------------|---------------7---|
A|------------------|-------------5---8-|
E|-1-1-0-0-0--0-0-0-|-1-1-0-0-5-6-------|


e||------------------|-------------------|-----------------|---------------------||
B||------------------|-------------------|-----------------|---------------------||
G||------------------|-------------------|-----------------|---------------------||
D||------------------|-------------------|-----------------|-------------7-------|| x2
A||--7-----2-----3-3-|-2-----2-----3-3---|-2-----2-----3-3-|-2---------5---8-----||
E||----0-0-0-0-0-1-1-|-0-0-0-0-0-0-1-1---|-0-0-0-0-0-0-1-1-|-0-0-0-5-6-----------||


[Verse]

e||--------------------------|----------------------------|
B||--------------------------|----------------------------|
G||--------------------------|----------------------------|
D||--------------------------|----------------------------|
A||--------------------------|----------------------------|
E||--1-1-0--0--0----0--0--0--|-1-1-0--0--0--1-1-0--1-1-0--|



e|-------------------------|------------------------||
B|-------------------------|------------------------||
G|-------------------------|------------------------||
D|-------------------------|-----------------7------|| x4
A|-------------------------|---------------5---8----||
E|-1-1-0--0--0----0--0--0--|-1-1-0--0--5-6----------||


[Pre-Chorus]

e||-----------------------------|--------------------------|
B||-----------------------------|--------------------------|
G||-----------------------------|--------------------------|
D||-----------------------------|--------------------------|
A||--7----------------------8-5-|-7--------------------8-5-|
E||--0-0-0-0-0-0-0-0-0-0-/7-----|---0-0-0-0-0-0-0-0-/7-----|


e|----------------|------------------------------||
B|----------------|------------------------------||
G|----------------|------------------------------||
D|----------------|------------------------------|| x2
A|-7---5---10-9---|-2----------------------8-5---||
E|---8---7--8-7---|-0-0-0-0-0-0-0-0-0-0-/7-------||


[Lead]
   Gtr II
e|--------------------------------------|----------------------------------------|
B|--------------------------------------|----------------------------------------|
G|-------------------12-----------------|----------------------------------------|
D|------------------------15-------14---|-(14)---12-------14-------15---14~~-----|
A|---------12---15----------------------|----------------------------------------|
E|--------------------------------------|----------------------------------------|
 | Gtr I
e|--------------------------------------|----------------------------------------|
B|--------------------------------------|----------------------------------------|
G|--------------------------------------|----------------------------------------|
D|--------------------------------------|----------------------------------------|
A|--------------------------------------|----------------------------------------|
E|-5-5-5-5--5-5--5-5--5-5--5-5-5-5--5-5-|---5--5--5-5-5-5--5-5-5-5--5-5--5-5-5-5-|



e|--------------------------------------|---------------------------------------|
B|--------------------------------------|---------------------------------------|
G|-------------------12-----------------|---------------------------------------|
D|------------------------15-------14---|-(14)---12-------14-------15~~---------|
A|---------12---15----------------------|---------------------------------------|
E|--------------------------------------|---------------------------------------|
 |
e|--------------------------------------|---------------------------------------|
B|--------------------------------------|---------------------------------------|
G|--------------------------------------|---------------------------------------|
D|--------------------------------------|---------------------------------------|
A|--------------------------------------|---------------------------------------|
E|-5-5-5-5--3-3--3-3--3-3--3-3-3-3--3-3-|---3--3--3-3-3-3--3-3-3-3--3-3-3-3-3-3-|


e|--------------------------------------|----------------------------------------|
B|--------------------------------------|----------------------------------------|
G|-------------------12-----------------|----------------------------------------|
D|------------------------15-------14---|-(14)---12-------14-------15---14~~-----|
A|---------12---15----------------------|----------------------------------------|
E|--------------------------------------|----------------------------------------|
 |
e|--------------------------------------|----------------------------------------|
B|--------------------------------------|----------------------------------------|
G|--------------------------------------|----------------------------------------|
D|--------------------------------------|----------------------------------------|
A|--------------------------------------|----------------------------------------|
E|-5-5-5-5--5-5--5-5--5-5--5-5-5-5--5-5-|---5--5--5-5-5-5--5-5-5-5--5-5--5-5-5-5-|


e|-------------------------------------|----------------------------------------|
B|-------------------------------------|----------------------------------------|
G|--------------12----------------14---|-(14)------------16----------------12---|
D|---------12----------------12--------|------------12----------------12--------|
A|-------------------------------------|----------------------------------------|
E|-------------------------------------|----------------------------------------|
 |
e|-------------------------------------|----------------------------------------|
B|-------------------------------------|----------------------------------------|
G|-------------------------------------|----------------------------------------|
D|-------------------------------------|----------------------------------------|
A|-------------------------------------|----------------------------------------|
E|-5-5-5-5--3-3--3-3-3-3-3-3--3-3--3-3-|---3--3-3-3--3-3--3-3-3-3-3-3--3-3--3-3-|


[Chorus]

e||------------------------|--------------------|
B||------------------------|--------------------|
G||------------------------|--------------------|
D||------------------------|--------------------|
A||----------7----------7--|---------7------7---|
E||--5-5-5-5-5--5-5-5-5-5--|-5-5-5-5-5---/8---8-|


e|-----------------------|---------------------||
B|-----------------------|---------------------||
G|-----------------------|---------------------||
D|-----------------------|---------------------|| x2
A|---------5----------5--|---------5------7----||
E|-3-3-3-3-3--3-3-3-3-3--|-3-3-3-3-3---/8---8--||


e||----------------------------|-----------------------------||
B||----------------------------|-----------------------------||
G||----------------------------|-----------------------------||
D||--9---------9---------9-----|-----------------------------|| x2
A||--7---------7---------7-----|------------------------8-5--||
E||----0-0-0-0---0-0-0-0---0-0-|-0-0-0-0-0-0-0-0-0-0-/7------||


e|------------------------|----------------|
B|------------------------|----------------|
G|------------------------|----------------|
D|-9---------9---------9--|-----------7----|
A|-7---------7---------7--|---------5----8-|
E|---0-0-0-0---0-0-0-0----|-----5-6--------|


[Riff]

e||------------------|-------------------|-----------------|---------------------||
B||------------------|-------------------|-----------------|---------------------||
G||------------------|-------------------|-----------------|---------------------||
D||------------------|-------------------|-----------------|-------------7-------|| x2
A||--7-----2-----3-3-|-2-----2-----3-3---|-2-----2-----3-3-|-2---------5---8-----||
E||----0-0-0-0-0-1-1-|-0-0-0-0-0-0-1-1---|-0-0-0-0-0-0-1-1-|-0-0-0-5-6-----------||


[Verse 2]

e||--------------------------|----------------------------|
B||--------------------------|----------------------------|
G||--------------------------|----------------------------|
D||--------------------------|----------------------------|
A||--------------------------|----------------------------|
E||--1-1-0--0--0----0--0--0--|-1-1-0--0--0--1-1-0--1-1-0--|



e|-------------------------|------------------------||
B|-------------------------|------------------------||
G|-------------------------|------------------------||
D|-------------------------|-----------------7------|| x2
A|-------------------------|---------------5---8----||
E|-1-1-0--0--0----0--0--0--|-1-1-0--0--5-6----------||


[Pre-Chorus 2]

e||-----------------------------|--------------------------|
B||-----------------------------|--------------------------|
G||-----------------------------|--------------------------|
D||-----------------------------|--------------------------|
A||--7----------------------8-5-|-7--------------------8-5-|
E||--0-0-0-0-0-0-0-0-0-0-/7-----|---0-0-0-0-0-0-0-0-/7-----|


e|----------------|------------------------------||
B|----------------|------------------------------||
G|----------------|------------------------------||
D|----------------|------------------------------|| x2
A|-7---5---10-9---|-2----------------------8-5---||
E|---8---7--8-7---|-0-0-0-0-0-0-0-0-0-0-/7-------||


[Lead 2]
   Gtr II
e|--------------------------------------|----------------------------------------|
B|--------------------------------------|----------------------------------------|
G|-------------------12-----------------|----------------------------------------|
D|------------------------15-------14---|-(14)---12-------14-------15---14~~-----|
A|---------12---15----------------------|----------------------------------------|
E|--------------------------------------|----------------------------------------|
 | Gtr I
e|--------------------------------------|----------------------------------------|
B|--------------------------------------|----------------------------------------|
G|--------------------------------------|----------------------------------------|
D|--------------------------------------|----------------------------------------|
A|--------------------------------------|----------------------------------------|
E|-5-5-5-5--5-5--5-5--5-5--5-5-5-5--5-5-|---5--5--5-5-5-5--5-5-5-5--5-5--5-5-5-5-|



e|--------------------------------------|---------------------------------------|
B|--------------------------------------|---------------------------------------|
G|-------------------12-----------------|---------------------------------------|
D|------------------------15-------14---|-(14)---12-------14-------15~~---------|
A|---------12---15----------------------|---------------------------------------|
E|--------------------------------------|---------------------------------------|
 |
e|--------------------------------------|---------------------------------------|
B|--------------------------------------|---------------------------------------|
G|--------------------------------------|---------------------------------------|
D|--------------------------------------|---------------------------------------|
A|--------------------------------------|---------------------------------------|
E|-5-5-5-5--3-3--3-3--3-3--3-3-3-3--3-3-|---3--3--3-3-3-3--3-3-3-3--3-3-3-3-3-3-|


e|--------------------------------------|----------------------------------------|
B|--------------------------------------|----------------------------------------|
G|-------------------12-----------------|----------------------------------------|
D|------------------------15-------14---|-(14)---12-------14-------15---14~~-----|
A|---------12---15----------------------|----------------------------------------|
E|--------------------------------------|----------------------------------------|
 |
e|--------------------------------------|----------------------------------------|
B|--------------------------------------|----------------------------------------|
G|--------------------------------------|----------------------------------------|
D|--------------------------------------|----------------------------------------|
A|--------------------------------------|----------------------------------------|
E|-5-5-5-5--5-5--5-5--5-5--5-5-5-5--5-5-|---5--5--5-5-5-5--5-5-5-5--5-5--5-5-5-5-|


e|-------------------------------------|----------------------------------------|
B|-------------------------------------|----------------------------------------|
G|--------------12----------------14---|-(14)------------16----------------12---|
D|---------12----------------12--------|------------12----------------12--------|
A|-------------------------------------|----------------------------------------|
E|-------------------------------------|----------------------------------------|
 |
e|-------------------------------------|----------------------------------------|
B|-------------------------------------|----------------------------------------|
G|-------------------------------------|----------------------------------------|
D|-------------------------------------|----------------------------------------|
A|-------------------------------------|----------------------------------------|
E|-5-5-5-5--3-3--3-3-3-3-3-3--3-3--3-3-|---3--3-3-3--3-3--3-3-3-3-3-3--3-3--3-3-|


[Chorus 2]

e||------------------------|--------------------|
B||------------------------|--------------------|
G||------------------------|--------------------|
D||------------------------|--------------------|
A||----------7----------7--|---------7------7---|
E||--5-5-5-5-5--5-5-5-5-5--|-5-5-5-5-5---/8---8-|


e|-----------------------|---------------------||
B|-----------------------|---------------------||
G|-----------------------|---------------------||
D|-----------------------|---------------------|| x2
A|---------5----------5--|---------5------7----||
E|-3-3-3-3-3--3-3-3-3-3--|-3-3-3-3-3---/8---8--||


e||----------------------------|-----------------------------||
B||----------------------------|-----------------------------||
G||----------------------------|-----------------------------||
D||--9---------9---------9-----|-----------------------------|| x2
A||--7---------7---------7-----|------------------------8-5--||
E||----0-0-0-0---0-0-0-0---0-0-|-0-0-0-0-0-0-0-0-0-0-/7------||


e|------------------------|----------------|-----|----------------|
B|------------------------|----------------|-----|----------------|
G|------------------------|----------------|-----|----------------|
D|-9---------9---------9--|-----------7----|-----|----------------|
A|-7---------7---------7--|---------5----8-|-7---|-(7)----2--5-7--|
E|---0-0-0-0---0-0-0-0----|-----5-6--------|-----|--------0--3-5--|


[Bridge]

e|-----------------|------------------|-----------------|-----------------|
B|-----------------|------------------|-----------------|-----------------|
G|-----------------|------------------|-----------------|-----------------|
D|-----------------|------------------|-----------------|-----------------|
A|-8-2-------------|-------------5-7--|-8-2-------------|-----------------|
E|-6-0-0-0-0-0-0-0-|-0-0-0-0-0-0-3-5--|-6-0-0-0-0-0-0-0-|-0-0-0-0-0-0-0-0-|

e|-----------------|------------------|-----------------|-----------------|
B|-----------------|------------------|-----------------|-----------------|
G|-----------------|------------------|-----------------|-----------------|
D|-----------------|------------------|-----------------|-----------------|
A|-8-2-------------|-------------5-7--|-8-2-------------|-----------------|
E|-6-0-0-0-0-0-0-0-|-0-0-0-0-0-0-3-5--|-6-0-0-0-0-0-0-0-|-0-0-0-0-0-0-0-0-|


e|----------------|-------------------|-----------------|---------------------|
B|----------------|-------------------|-----------------|---------------------|
G|----------------|-------------------|-----------------|---------------------|
D|----------------|-------------------|-----------------|---------------------|
A|-7-7--7-7-5-----|-----2-------------|-8-7---7---5-5-5-|-(5)-2---------------|
E|------------7-6-|-(6)-0-0-0-0-0-0-0-|-6-5-5-5-5-3-3-3-|-(3)-0-0-0-0-0-0-0---|


e|----------------|-------------------|-----------------|-------------------|
B|----------------|-------------------|-----------------|-------------------|
G|----------------|-------------------|-----------------|-------------------|
D|----------------|-------------------|-----------------|-------------------|
A|-7-7--7-7-5-----|-----2-------------|-8-7---7---5-5-5-|-(5)-2---------5-7-|
E|------------7-6-|-(6)-0-0-0-0-0-0-0-|-6-5-5-5-5-3-3-3-|-(3)-0-0-0-0-0-3-5-|


[Vocals enter]

e||-----------------|--------------------||
B||-----------------|--------------------||
G||-----------------|--------------------||
D||-----------------|--------------------|| x4
A||-8-2-------------|-------------5-7----||
E||-6-0-0-0-0-0-0-0-|-0-0-0-0-0-0-3-5----||


[Solo]
   Kirk
e|------------------|-------------------------|-------------------------|------------------------|
B|------------------|-------------------------|-------------------------|------------------------|
G|-9-9-9-9-9-9-9-12-|-12-12-12-12-12-12-12-14-|-14-14-14-14-14-14-14-15-|-15-15-15-17-17-19-19---|
D|------------------|-------------------------|-------------------------|------------------------|
A|------------------|-------------------------|-------------------------|------------------------|
E|------------------|-------------------------|-------------------------|------------------------|
 |
 | James
e|------------------|-------------------------|-------------------------|------------------------|
B|------------------|-------------------------|-------------------------|------------------------|
G|------------------|-------------------------|-------------------------|------------------------|
D|------------------|-------------------------|-------------------------|------------------------|
A|-8-2--------------|--------------------5--7-|--8--2-------------------|--------------------5-7-|
E|-6-0-0-0-0-0-0--0-|--0--0--0--0--0--0--3--5-|--6--0--0--0--0--0--0--0-|--0--0--0--0--0--0--3-5-|


e|------------------|-------------------------|-------------------------|-----------------------|
B|------------------|-------------------------|-------------------------|-----------------------|
G|-9-9-9-9-9-9-9-12-|-12-12-12-12-12-12-12-14-|-14-14-14-14-14-14-14-15-|-15-15-15-17-17\-------|
D|------------------|-------------------------|-------------------------|-----------------------|
A|------------------|-------------------------|-------------------------|-----------------------|
E|------------------|-------------------------|-------------------------|-----------------------|
 |
e|------------------|-------------------------|-------------------------|-----------------------|
B|------------------|-------------------------|-------------------------|-----------------------|
G|------------------|-------------------------|-------------------------|-----------------------|
D|------------------|-------------------------|-------------------------|-----------------------|
A|-8-2--------------|--------------------5--7-|--8--2-------------------|-------------------5-7-|
E|-6-0-0-0-0-0-0--0-|--0--0--0--0--0--0--3--5-|--6--0--0--0--0--0--0--0-|--0--0--0--0--0--0-3-5-|


e|------------------------|-----------------------|------------------------|-----------------------|
B|-15b15.5----12\---------|-----12----12\---------|----12----12------12-15-|-(15)------------------|
G|-14b14.5----12\---------|-----12----12\---------|----12----12------12-14-|-(14)b16---------------|
D|------------------------|-14-----14-------------|-14----14------14-------|-----------------------|
A|------------------------|-----------------------|------------------------|-----------------------|
E|------------------------|-----------------------|------------------------|-----------------------|
 |
e|------------------------|-----------------------|------------------------|-----------------------|
B|------------------------|-----------------------|------------------------|-----------------------|
G|------------------------|-----------------------|------------------------|-----------------------|
D|------------------------|-----------------------|------------------------|-----------------------|
A|--7------7---7--7-5-----|------2----------------|--8--7-----7----5--5--5-|--(5)----2-------------|
E|--------------------7-6-|-(6)--0--0--0--0-0-0-0-|--6--5--5--5-5--3--3--3-|--(3)----0-0-0-0-0-0-0-|


e|----------------------|-----------------------|-------------------------|-------------------------|
B|-15-------12\---------|-----12----12\---------|----12-12----12-12----12-|-(12)----12-12-12--------|
G|-14b16----12\---------|-----12----12\---------|----12-12----12-12----12-|-(12)----12-12-12--------|
D|----------------------|-14-----14-------------|-14-------14-------14----|------14----------14-----|
A|----------------------|-----------------------|-------------------------|-------------------------|
E|----------------------|-----------------------|-------------------------|-------------------------|
 |
e|----------------------|-----------------------|-------------------------|-------------------------|
B|----------------------|-----------------------|-------------------------|-------------------------|
G|----------------------|-----------------------|-------------------------|-------------------------|
D|----------------------|-----------------------|-------------------------|-------------------------|
A|--7----7---7--7-5-----|------2----------------|--8--7-----7-----5--5--5-|--(5)--2-----------------|
E|------------------7-6-|-(6)--0--0--0--0-0-0-0-|--6--5--5--5--5--3--3--3-|--(3)--0--0--0--0--0-0-0-|


e|----------------------------------------------|-------------------------------------|
B|-------12-12h15p12----12h15p12----12h15p12----|-12h15p12----------------------12-13-|
G|-14b16-------------14----------14----------14-|----------14-12h14p12----12-14-------|
D|----------------------------------------------|----------------------14-------------|
A|----------------------------------------------|-------------------------------------|
E|----------------------------------------------|-------------------------------------|
 |
e|----------------------------------------------|-------------------------------------|
B|----------------------------------------------|-------------------------------------|
G|--5-----5--5-----5-----5-----5-----5-----5----|--5-----5-----5--5--5--5--5--5-------|
D|--5-----5--5-----5-----5-----5-----5-----5----|--5-----5-----5--5--5--5--5--5-------|
A|--3-----3--3-----3-----3-----3-----3-----3----|--3-----3-----3--3--3--3--3--3-------|
E|----------------------------------------------|-------------------------------------|


e|----12-------------------|-------------------------------|
B|-15----------------------|-------------------------------|
G|-------------------------|-------------------------------|
D|-------12-14-12----12-14-|-12-14-14p12----12-14-14p12----|
A|----------------14-------|-------------14-------------14-|
E|-------------------------|-------------------------------|
 |
e|-------------------------|-------------------------------|
B|-------------------------|-------------------------------|
G|--7--7--7--7--7--7--7--7-|--7--7--7-----7--7--7--7-----7-|
D|--7--7--7--7--7--7--7--7-|--7--7--7-----7--7--7--7-----7-|
A|--5--5--5--5--5--5--5--5-|--5--5--5-----5--5--5--5-----5-|
E|-------------------------|-------------------------------|


e|-------------------------------|--------------------------------|
B|-------------------------------|--------------------------------|
G|-------------------------------|--------------------------------|
D|-12-14-14p12----12-14-14p12----|-12--14-14p12----12-14-14p12----|
A|-------------14-------------14-|--------------14-------------14-|
E|-------------------------------|--------------------------------|
 |
e|-------------------------------|--------------------------------|
B|-------------------------------|--------------------------------|
G|-------------------------------|--------------------------------|
D|-------------------------------|--------------------------------|
A|--7--7--------7--7--5----------|--------------------------------|
E|-----------------------7-----6-|-(6)--0--0-----0--0--0--0-----0-|


e|----------------------------|-----------------------------------|
B|----------------------------|-----------------------------------|
G|----12-11-------------------|-----------------------------------|
D|-14----------12-14-14p12----|-12h=14p12----12h14p12----12~~~----|
A|----------14-------------14-|-----------14----------14----------|
E|----------------------------|-----------------------------------|
 |
e|----------------------------|-----------------------------------|
B|----------------------------|-----------------------------------|
G|----------------------------|-----------------------------------|
D|----------------------------|-----------------------------------|
A|--7--7-----7--7--5----------|-----------------------------------|
E|--------------------7-----6-|-(6)-----0-----0-----0-----0-0-0-0-|


e|----------------------------|----------------------------|
B|-------------------15-------|-------------------15-------|
G|-12----12-14b16=======14r14-|-12----12-14b16=======14r14-|
D|----14----------------------|----14----------------------|
A|----------------------------|----------------------------|
E|----------------------------|----------------------------|
 |
e|----------------------------|----------------------------|
B|----------------------------|----------------------------|
G|--5--5--5--5-----5--5--5--5-|--5--5--5--5-----5--5--5--5-|
D|--5--5--5--5-----5--5--5--5-|--5--5--5--5-----5--5--5--5-|
A|--3--3--3--3-----3--3--3--3-|--3--3--3--3-----3--3--3--3-|
E|----------------------------|----------------------------|


e|-------------------15-------|-------------------15-------|
B|----------15b17=======15r15-|----------15b17=======15r15-|
G|-12----12-------------------|-14-12-14-------------------|
D|----14----------------------|----------------------------|
A|----------------------------|----------------------------|
E|----------------------------|----------------------------|
 |
e|----------------------------|----------------------------|
B|----------------------------|----------------------------|
G|--7--7--7--7-----7--7--7--7-|--7--7--7--7-----7--7--7--7-|
D|--7--7--7--7-----7--7--7--7-|--7--7--7--7-----7--7--7--7-|
A|--5--5--5--5-----5--5--5--5-|--5--5--5--5-----5--5--5--5-|
E|----------------------------|----------------------------|


e|-12h15p12----12h15p12----12h17p12----12h17p12----|-12h=18p12----12h18p12----12h17p12----12h17p12----|
B|----------15----------15----------15----------15-|-----------15----------15----------15----------15-|
G|-------------------------------------------------|--------------------------------------------------|
D|-------------------------------------------------|--------------------------------------------------|
A|-------------------------------------------------|--------------------------------------------------|
E|-------------------------------------------------|--------------------------------------------------|
|
e|-------------------------------------------------|--------------------------------------------------|
B|-------------------------------------------------|--------------------------------------------------|
G|-------------------------------------------------|--------------------------------------------------|
D|-------------------------------------------------|--------------------------------------------------|
A|--7-----7-----------7-----7-----5----------------|--------------------------------------------------|
E|--------------------------------------7-----6----|-(6)-----0-----0-----0-----0-----0-----0-----0----|


e|-12h19p12----12h19p12----12h18p12----12h18p12----|-12h=17p12----12h17p12----12h15p12----12h15p12-------|
B|----------15----------15----------15----------15-|-----------15----------15----------15----------15----|
G|-------------------------------------------------|-----------------------------------------------------|
D|-------------------------------------------------|-----------------------------------------------------|
A|-------------------------------------------------|-----------------------------------------------------|
E|-------------------------------------------------|-----------------------------------------------------|
 |
e|-------------------------------------------------|-----------------------------------------------------|
B|-------------------------------------------------|-----------------------------------------------------|
G|-------------------------------------------------|-----------------------------------------------------|
D|-------------------------------------------------|-----------------------------------------------------|
A|--7-----7-----------7-----7-----5----------------|-----------------------------------------------------|
E|--------------------------------------7-----6----|-(6)-----0-----0-----0-----0-----0-----0-----0-------|


e|-15p12-12-12-15p12-12-12-12-12-15p12-12-12-12-12-|-15p=12----12-15p12-15p12----12-15p12-15p12----12-|
B|-------------------------------------------------|--------15----------------15----------------15----|
G|-------------------------------------------------|--------------------------------------------------|
D|-------------------------------------------------|--------------------------------------------------|
A|-------------------------------------------------|--------------------------------------------------|
E|-------------------------------------------------|--------------------------------------------------|
 |
e|-------------------------------------------------|--------------------------------------------------|
B|-------------------------------------------------|--------------------------------------------------|
G|-------------------------------------------------|--------------------------------------------------|
D|-------------------------------------------------|--------------------------------------------------|
A|--8-----7-----------7-----------5-----5-----5----|-(5)-----2----------------------------------------|
E|--6-----5-----5-----5-----5-----3-----3-----3----|-(3)-----0-----0-----0-----0-----0-----0-----0----|


e|-12h17p12----12h17p12----12h18p12----12h18p12----|-15p=12----12----12----------------|
B|----------15----------15----------15----------15-|--------15----15-------------------|
G|-------------------------------------------------|--------------------14p12----12----|
D|-------------------------------------------------|--------------------------14-------|
A|-------------------------------------------------|-----------------------------------|
E|-------------------------------------------------|-----------------------------------|
 |
e|-------------------------------------------------|-----------------------------------|
B|-------------------------------------------------|-----------------------------------|
G|-------------------------------------------------|-----------------------------------|
D|-------------------------------------------------|-----------------------------------|
A|--8-----7-----------7-----------5-----5-----5----|-(5)-----2-------------------------|
E|--6-----5-----5-----5-----5-----3-----3-----3----|-(3)-----0--0--0--0--0-----0--0----|


e|---------------------------------|-------------------------|
B|-15--------15-------------15-----|-(15)-----15b17~~~~~-----|
G|-14b16-----14b16====14-14-14b16==|=(14)-14r----------------|
D|---------------------------------|-------------------------|
A|---------------------------------|-------------------------|
E|---------------------------------|-------------------------|
 |
e|---------------------------------|-------------------------|
B|---------------------------------|-------------------------|
G|---------------------------------|-------------------------|
D|---------------------------------|-------------------------|
A|--8----7----7--------5--5--5-----|--(5)--2----------3-3-2--|
E|--6----5-5--5-----5--3--3--3-----|--(3)--0---0----0-1-1-0--|


[Re-Intro]

e|--------------|----------------|----------------|------------------------|
B|--------------|----------------|----------------|------------------------|
G|--------------|----------------|----------------|------------------------|
D|--------------|------5---------|----------------|------5---------5--9--7-|
A|-7--8-7---5-7-|-(7)----7---5-7-|-(7)--8-7---5-7-|-(7)----7---5-7----7--5-|
E|--------------|----------------|----------------|-------------------7--5-|


[Verse 3]

e||--------------------------|----------------------------|
B||--------------------------|----------------------------|
G||--------------------------|----------------------------|
D||--------------------------|----------------------------|
A||--------------------------|----------------------------|
E||--1-1-0--0--0----0--0--0--|-1-1-0--0--0--1-1-0--1-1-0--|



e|-------------------------|------------------------||
B|-------------------------|------------------------||
G|-------------------------|------------------------||
D|-------------------------|-----------------7------|| x2
A|-------------------------|---------------5---8----||
E|-1-1-0--0--0----0--0--0--|-1-1-0--0--5-6----------||


[Pre-Chorus 3]

e||-----------------------------|--------------------------|
B||-----------------------------|--------------------------|
G||-----------------------------|--------------------------|
D||-----------------------------|--------------------------|
A||--7----------------------8-5-|-7--------------------8-5-|
E||--0-0-0-0-0-0-0-0-0-0-/7-----|---0-0-0-0-0-0-0-0-/7-----|


e|----------------|------------------------------||
B|----------------|------------------------------||
G|----------------|------------------------------||
D|----------------|------------------------------|| x2
A|-7---5---10-9---|-2----------------------8-5---||
E|---8---7--8-7---|-0-0-0-0-0-0-0-0-0-0-/7-------||


[Lead]
   Gtr II
e|--------------------------------------|----------------------------------------|
B|--------------------------------------|----------------------------------------|
G|-------------------12-----------------|----------------------------------------|
D|------------------------15-------14---|-(14)---12-------14-------15---14~~-----|
A|---------12---15----------------------|----------------------------------------|
E|--------------------------------------|----------------------------------------|
 | Gtr I
e|--------------------------------------|----------------------------------------|
B|--------------------------------------|----------------------------------------|
G|--------------------------------------|----------------------------------------|
D|--------------------------------------|----------------------------------------|
A|--------------------------------------|----------------------------------------|
E|-5-5-5-5--5-5--5-5--5-5--5-5-5-5--5-5-|---5--5--5-5-5-5--5-5-5-5--5-5--5-5-5-5-|



e|--------------------------------------|---------------------------------------|
B|--------------------------------------|---------------------------------------|
G|-------------------12-----------------|---------------------------------------|
D|------------------------15-------14---|-(14)---12-------14-------15~~---------|
A|---------12---15----------------------|---------------------------------------|
E|--------------------------------------|---------------------------------------|
 |
e|--------------------------------------|---------------------------------------|
B|--------------------------------------|---------------------------------------|
G|--------------------------------------|---------------------------------------|
D|--------------------------------------|---------------------------------------|
A|--------------------------------------|---------------------------------------|
E|-5-5-5-5--3-3--3-3--3-3--3-3-3-3--3-3-|---3--3--3-3-3-3--3-3-3-3--3-3-3-3-3-3-|


e|--------------------------------------|----------------------------------------|
B|--------------------------------------|----------------------------------------|
G|-------------------12-----------------|----------------------------------------|
D|------------------------15-------14---|-(14)---12-------14-------15---14~~-----|
A|---------12---15----------------------|----------------------------------------|
E|--------------------------------------|----------------------------------------|
 |
e|--------------------------------------|----------------------------------------|
B|--------------------------------------|----------------------------------------|
G|--------------------------------------|----------------------------------------|
D|--------------------------------------|----------------------------------------|
A|--------------------------------------|----------------------------------------|
E|-5-5-5-5--5-5--5-5--5-5--5-5-5-5--5-5-|---5--5--5-5-5-5--5-5-5-5--5-5--5-5-5-5-|


e|---------------------------------|----------------------------------|------|
B|---------------------------------|----------------------------------|------|
G|--7p5p0---7p5p0---6p5p0---6p5p0--|--5p4p0---5p4p0---4p2p0---4p2p0---|-2----|
D|---------------------------------|----------------------------------|------|
A|---------------------------------|----------------------------------|------|
E|---------------------------------|----------------------------------|------|
 |
e|---------------------------------|----------------------------------|
B|---------------------------------|----------------------------------|
G|---------------------------------|----------------------------------|
D|---------------------------------|----------------------------------|
A|---------------------------------|----------------------------------|
E|-5-5-5-5-3-3-3-3-3-3-3-3-3-3-3-3-|--3-3-3-3-3-3-3-3-3-3-3-3-3-3-3-3-|


[Chorus]

e||------------------------|--------------------|
B||------------------------|--------------------|
G||------------------------|--------------------|
D||------------------------|--------------------|
A||----------7----------7--|---------7------7---|
E||--5-5-5-5-5--5-5-5-5-5--|-5-5-5-5-5---/8---8-|


e|-----------------------|---------------------||
B|-----------------------|---------------------||
G|-----------------------|---------------------||
D|-----------------------|---------------------|| x2
A|---------5----------5--|---------5------7----||
E|-3-3-3-3-3--3-3-3-3-3--|-3-3-3-3-3---/8---8--||


e||----------------------------|-----------------------------||
B||----------------------------|-----------------------------||
G||----------------------------|-----------------------------||
D||--9---------9---------9-----|-----------------------------|| x2
A||--7---------7---------7-----|------------------------8-5--||
E||----0-0-0-0---0-0-0-0---0-0-|-0-0-0-0-0-0-0-0-0-0-/7------||


e|------------------------|----------------|
B|------------------------|----------------|
G|------------------------|----------------|
D|-9---------9---------9--|-----------7----|
A|-7---------7---------7--|---------5----8-|
E|---0-0-0-0---0-0-0-0----|-----5-6--------|


[Riff]

e||------------------|-------------------|-----------------|---------------------||
B||------------------|-------------------|-----------------|---------------------||
G||------------------|-------------------|-----------------|---------------------||
D||------------------|-------------------|-----------------|-------------7-------|| x2
A||--7-----2-----3-3-|-2-----2-----3-3---|-2-----2-----3-3-|-2---------5---8-----||
E||----0-0-0-0-0-1-1-|-0-0-0-0-0-0-1-1---|-0-0-0-0-0-0-1-1-|-0-0-0-5-6-----------||


[Outro]

e||----------------|-------------------|-----------------|---------------------||
B||----------------|-------------------|-----------------|---------------------||
G||----------------|-------------------|-----------------|---------------------||
D||----------------|-------------------|-----------------|---------------------|| x2
A||-7-7--7-7-5-----|-----2-------------|-8-7---7---5-5-5-|-(5)-2---------------||
E||------------7-6-|-(6)-0-0-0-0-0-0-0-|-6-5-5-5-5-3-3-3-|-(3)-0-0-0-0-0-0-0---||

e||-----------------|---------------------|-----------------------||
B||-----------------|---------------------|-----------------------||
G||-----------------|---------------------|-----------------------||
D||-----------------|---------------------|-----------------------||
A||-8-7---7---5-5-5-|-(5)-2---------------|-2-5-------------------||
E||-6-5-5-5-5-3-3-3-|-(3)-0-0-0-0-0-0-0---|-0-3-------------------||


e||-----------------|-----------------------||
B||-----------------|-----------------------||
G||-----------------|-----------------------||
D||-----------------|-----------------------||
A||-8-7---7---5-5-5-|-2-5-------------------||
E||-6-5-5-5-5-3-3-3-|-0-3-------------------||


e|--------------|------------------|----------------|-------------------|
B|--------------|------------------|----------------|-------------------|
G|--------------|------------------|----------------|-----------9--7--9-|
D|--------------|------------------|----------------|-----------9--7--9-|
A|-7--8-7---5-7-|-(7)--10--7---5-7-|-(7)--8-7---5-7-|-(7)--10---7--5--7-|
E|--------------|------------------|----------------|-----------7--5--7-|



***********************************

| /   Slide up
| \   Slide down
| b   Bend
| h   Hummer-on
| p   Pull-off
| ~   Vibrato
|( )  Ghost note

*********************************** 
Suggest correction
comments
print report bad tab
12 comments total. Showing first comments.
+5 reply
SwissWolv 10 Sep 26, 2016 07:40 PM

How the fuck do you get it down that fast. Nice tab!

0 reply
Rondemonz 10 Sep 26, 2016 10:27 PM

really good tab! cpl minor notes missing but one can catch them. wondering if any one had the " now were dead tab? or the atlas rise tabs :?

+4 reply
valderonix 46 Sep 27, 2016 02:58 AM

Thanks for the tab, but like... are you a fucking god?

guest
You may want to rate the tab now too:
select rating
Wanna post a correction for this tab? Suggest correction