Oops, an error
Loading. Please wait.

Moth Into Flame Tab

version 3
version 3

Whole song

  • Entire song except for solo, which will be added shortly.
  • Contains full solo, all individual harmonies together and all guitar tracks.
8,089 views 348 this week
no commentswrite comment
1 2 3 4 5
x 3
add to favorites
launch autoscroll
font size
0
reset
how to read this tab
guitar tuner
Autoscroll
slow
fast
+/-
esc
set tempo
stop
Help us to improve Ultimate-Guitar.com Take our survey!
×
Author
Metallica
Moth Into Flame

Standard Tuning

[Intro A]
e|-------------------------------|
B|------------------8------------|
G|-9-10-9--7------9---9--7-------|
D|-----------2-------------2-2---|
A|-----------2-------------2-2---|
E|-----------0-------------0-0---|

[Intro B]
e|------------------------------------------------|
B|------------------------------------------------|
G|-9-10-9-7---------------------------------------|
D|----------------------5------------------5-8-7--|
A|----------7-8-7--5--7---7--5--7-8-7--5-7---8-7--|
E|-------------------------------------------6----|

[Riff A]
e|-----------------------------------|
B|-----------------------------------|
G|-----------------------------------|
D|-----------------------------------|
A|-----------------------------------|
E|-000-0-0--0-0-0-000-0-0-000-000----|
   ... . .  . . . ... . . ... ...

[Riff]
e|-----------------|
B|-----------------|
G|-----------------|
D|-2-----2-----3-3-|
A|-2-----2-----3-3-|
E|-0-0-0-0-0-0-1-1-|

[Verse A]
e|-----------------------------------|
B|-----------------------------------|
G|-----------------------------------|
D|-----------------------------------|
A|-----------------------------------|
E|-000-0-0--0-0-0-000-0-0-000-000----|
   ... . .  . . . ... . . ... ...
e|------------------------------------|
B|------------------------------------|
G|------------------------------------|
D|-----------------------------7------|
A|---------------------------7---8-7--|
E|-000-0-0--0-0-0-000-0-/5-6----------|
   ... . .  . . . ... . 

[Verse B]
e|----------------------------------------------------------|
B|----------------------------------------------------------|
G|-----------------------------------------------------4----|
D|-----------------------------------------------------4--2-|
A|-----8-5-7-------------8-5-7-------------8-5-7---5---2--2-|
E|-5h6-------0-0-0-0-5h6-------0-0-0-0-5h6-------8---6----0-|
             . . . .           . . . .

[Pre-Chorus]
e|-----------------------------------------|
B|-----8--------------------8--------------|
G|-------10-9-7-9h10-9--------10-9-7-9h10--|
D|-7h9------------------7h9----------------|
A|-----------------------------------------|
E|-----------------------------------------|

e|----------------------------------------------|
B|-----8------------------8----10-----12----10--|
G|-------10-9-7-9h10-9--7----9-----12-----9-----|
D|-7h9------------------------------------------|
A|----------------------------------------------|
E|----------------------------------------------|

[Chorus A]
e|--------------------------------------------------|
B|--------------------------------------------------|
G|--------------------------------------------------|
D|-----7-----7-----7-----7-----5-----5-----5-----5--|
A|-----7-----7-----7-----7-----5-----5-----5-----5--|
E|-55555-55555-55555-55555-33333-33333-33333-33333--|
   ....  ....  ....  ....  ....  ....  ....  ....

[Chorus B]
e|--------------------------|
B|--------------------------|
G|--------------------------|
D|-2-2-2--------------------|
A|-2-2-2-------------8-7----|
E|-0-0-0-000000005h6--------|

[Breakdown]
e|----------------------------------|
B|----------------------------------|
G|----------------------------------|
D|-------------------------5-7-8----|
A|-------------------------5-7-8----|
E|-0-0-0-0-0-0-0-0-0-0-0-0-3-5-6-0--|
   . . . . . . . . . . . .

e|-----------------------------------------------------|
B|-----------------------------------------------------|
G|-----------------------------------------------------|
D|---------------------------------8-----7---5-5-5-----|
A|-/7-777-7-7-5--------------------8-----7---5-5-5-----|
E|--------------7-6~-0-0-0-0-0-0-0-6-0-0-5-0-3-3-3--0--|


************************************

| h  Hammer-on
| /  Slide up
| ~  Vibrato 

************************************
Suggest correction
Give kudos to tab author, rate the tab!
1 2 3 4 5
comments
print report bad tab
guest
You may want to rate the tab now too:
select rating
Wanna post a correction for this tab? Suggest correction