Oops, an error
Loading. Please wait.

Murder One Bass Tab

version 1
version 1

Whole song

  • First bass version. Covers riffs for entire song, ... Show more
  • Bass Tab for 'Murder One' a great song by Metallica.

Interactive

175 views 96 this week
no commentswrite comment
1 2 3 4 5
3 more votes to show rating
add to favorites
launch autoscroll
font size
0
reset
guitar tuner
Autoscroll
slow
fast
+/-
esc
set tempo
stop
Help us to improve Ultimate-Guitar.com Take our survey!
×
Author
Difficulty
Tuning
intermediate
B E A D F# B
About this tab version
First bass version. Covers riffs for entire song, and matches sections from the version 3 guitar tab as well. Was this info helpful? Yes No
Artist:    Metallica   
Song:      Murder One      
Tuning:    Standard 5 string Bass    
Tabbed by: jjhand



[Intro] (0:25)
G|---------------------------|---------------------------|
D|---------------------------|---------------------------|
A|---------------------------|---------------------------|
E|-7-5-7-5-7-5-8----7--7--7--|-7-5-7-5-7-5-8----7--7--7--|
B|---------------------------|---------------------------|

rest for 2 measures (8 beats)

G|---------------------------|---------------------------|
D|---------------------------|---------------------------|
A|---------------------------|---------------------------|
E|-7-5-7-5-7-5-8----7--7--7--|-7-5-7-5-7-5-8----7--7--7--|
B|---------------------------|---------------------------|

G|--------------------------------|---------------------------|
D|--------------------------------|---------------------------|
A|--------------------------------|---------------------------|
E|-7-----8----/13----12-13-12tr13-|-7-5-7-5-7-5-8----7--7--7--|
B|--------------------------------|---------------------------|

G|--------------------------------|---------------------------|
D|--------------------------------|---------------------------|
A|--------------------------------|---------------------------|
E|-7-----8----/13----12-13-12tr13-|-7-5-7-5-7-5-8----7--7--7--|
B|--------------------------------|---------------------------|

G|-------------------------|------------------|-------------|
D|-------------------------|------------------|-------------|
A|-------------------5-----|------------------|-------------|
E|-8-----7-----5-----------|-0----------------|-------------|
B|-------------------------|------------------|-------------|


[Pre Verse]
G|-------------------------|------------------------|
D|----4-----------4--3~----|----4----------4--3~----|
A|-------------------------|------------------------|
E|-2-----2---0h2-----------|-2-----2--0h2-----------|
B|-------------------------|------------------------|

G|-------------------------|------------------------|
D|----4-----------4--3~----|------------------------|
A|-------------------------|------------------------|
E|-2-----2---0h2-----------|-7-----7-----8-----5----|
B|-------------------------|------------------------|

G|-------------------------|------------------------|
D|----4-----------4--3~----|----4----------4--3~----|
A|-------------------------|------------------------|
E|-2-----2---0h2-----------|-2-----2--0h2-----------|
B|-------------------------|------------------------|

                             6/4
G|-------------------------|-----------------------------------|
D|----4-----------4--3~----|-----------------------------------|
A|-------------------------|-----------------------------------|
E|-2-----2---0h2-----------|----2-------------------3--4--3----|
B|-------------------------|-1-----1---------------------------|

   4/4 again
G|-------------------------|------------------------|
D|----4-----------4--3~----|----4----------4--3~----|
A|-------------------------|------------------------|
E|-2-----2---0h2-----------|-2-----2--0h2-----------|
B|-------------------------|------------------------|

G|-------------------------|------------------------|
D|----4-----------4--3~----|------------------------|
A|-------------------------|------------------------|
E|-2-----2---0h2-----------|-7-----7-----8-----5----|
B|-------------------------|------------------------|


[Verse]
G|-----------------------|-------------------------|
D|-----------------------|-------------------------|
A|-----------------------|-------------------------|
E|-2-----------0--3----0-|-2-----2-----3-----------| 
B|-----------------------|-------------------------|

G|-----------------------|-------------------------|
D|-----------------------|-------------------------|
A|-----------------------|-------------------------|
E|-2-----------0--3----0-|-2-----2-----3-----------| 
B|-----------------------|-------------------------|

G|-----------------------|-------------------------|
D|-----------------------|-------------------------|
A|-----------------------|-------------------------|
E|-2-----------0--3----0-|-2-----2-----3-----------| 
B|-----------------------|-------------------------|

G|-----------------------|-------------------------|
D|-----------------------|-------------------------|
A|-----------------------|-------------------------|
E|-2-----------0--3----0-|-2-----2-----3-----------| 
B|-----------------------|-------------------------|

G|-----------------|-----------------|-----------------|------------------|
D|-----------------|-----------------|-----------------|------------------|
A|-----------------|-----------------|-----------------|------------------|
E|-5---5---6---3---|-5---5---6---3---|-7---7---8---5---|-7---8---9---10---|
B|-----------------|-----------------|-----------------|------------------|

G|-------------------------|------------------------|
D|----4-----------4--3~----|----4----------4--3~----|
A|-------------------------|------------------------|
E|-2-----2---0h2-----------|-2-----2--0h2-----------|
B|-------------------------|------------------------|

G|-------------------------|------------------------|
D|----4-----------4--3~----|------------------------|
A|-------------------------|------------------------|
E|-2-----2---0h2-----------|-7-----7-----8-----5----|
B|-------------------------|------------------------|


[Prechorus]
  6/4                       4/4
G|------------------------|-----------------|------------------|
D|------------------------|-----------------|------------------|
A|---------5--------------|-4---------------|-5----------------|
E|---------3-------0------|-2---------------|-3-------0--------|
B|------------------------|-----------------|------------------|

                      6/4
G|------------------|-------------------------------|
D|------------------|-------------------------------|
A|-4----------------|--5----------------------------|
E|-2----------------|--3--------0---------3----1----|
B|------------------|-------------------------------|


[Chorus] - 4/4 time
G|-------------------------|--------------------------|
D|-------------------------|--------------------------|
A|-------------------------|--------------------------|
E|-2-----1--0--1--2--1--0--|-1--2--1--0---3-----1-----|
B|-------------------------|--------------------------|

G|-------------------------|--------------------------|
D|-------------------------|--------------------------|
A|-------------------------|--------------------------|
E|-2-----1--0--1--2--1--0--|-1--2--1--0---3-----1-----|
B|-------------------------|--------------------------|

G|-------------------------|--------------------------|
D|-------------------------|--------------------------|
A|-------------------------|--------------------------|
E|-2-----1--0--1--2--1--0--|-1--2--1--0---3-----1-----|
B|-------------------------|--------------------------|

G|-------------------------|--------------------------|-----------------------|
D|-------------------------|--------------------------|-----------------------|
A|-------------------------|--------------------------|-----------------------|
E|-2-----1--0--1--2--1--0--|-1--2--1--2------2--------|------------3--4--3----|
B|-------------------------|--------------1-----1-----|-----------------------|

[Pre Verse 2]
G|-------------------------|------------------------|
D|----4-----------4--3~----|----4----------4--3~----|
A|-------------------------|------------------------|
E|-2-----2---0h2-----------|-2-----2--0h2-----------|
B|-------------------------|------------------------|

G|-------------------------|------------------------|
D|----4-----------4--3~----|------------------------|
A|-------------------------|------------------------|
E|-2-----2---0h2-----------|-7-----7-----8-----5----|
B|-------------------------|------------------------|

[Verse 2]
G|-----------------------|-------------------------|
D|-----------------------|-------------------------|
A|-----------------------|-------------------------|
E|-2-----------0--3----0-|-2-----2-----3-----------| 
B|-----------------------|-------------------------|

G|-----------------------|-------------------------|
D|-----------------------|-------------------------|
A|-----------------------|-------------------------|
E|-2-----------0--3----0-|-2-----2-----3-----------| 
B|-----------------------|-------------------------|

G|-----------------------|-------------------------|
D|-----------------------|-------------------------|
A|-----------------------|-------------------------|
E|-2-----------0--3----0-|-2-----2-----3-----------| 
B|-----------------------|-------------------------|

G|-----------------------|-------------------------|
D|-----------------------|-------------------------|
A|-----------------------|-------------------------|
E|-2-----------0--3----0-|-2-----2-----3-----------| 
B|-----------------------|-------------------------|

G|-----------------|-----------------|-----------------|------------------|
D|-----------------|-----------------|-----------------|------------------|
A|-----------------|-----------------|-----------------|------------------|
E|-5---5---6---3---|-5---5---6---3---|-7---7---8---5---|-7---8---9---10---|
B|-----------------|-----------------|-----------------|------------------|

G|-------------------------|------------------------|
D|----4-----------4--3~----|----4----------4--3~----|
A|-------------------------|------------------------|
E|-2-----2---0h2-----------|-2-----2--0h2-----------|
B|-------------------------|------------------------|

G|-------------------------|------------------------|
D|----4-----------4--3~----|------------------------|
A|-------------------------|------------------------|
E|-2-----2---0h2-----------|-7-----7-----8-----5----|
B|-------------------------|------------------------|


[Prechorus 2]
  6/4                       4/4
G|------------------------|-----------------|------------------|
D|------------------------|-----------------|------------------|
A|---------5--------------|-4---------------|-5----------------|
E|---------3-------0------|-2---------------|-3-------0--------|
B|------------------------|-----------------|------------------|

                      6/4
G|------------------|-------------------------------|
D|------------------|-------------------------------|
A|-4----------------|--5----------------------------|
E|-2----------------|--3--------0---------3----1----|
B|------------------|-------------------------------|



[Chorus 2]
G|------------------------|--------------------------|
D|------------------------|--------------------------|
A|------------------------|--------------------------|
E|-2-----1--0--1--2----0--|-1--2--1--0---3-----1-----|
B|------------------------|--------------------------|

G|------------------------|--------------------------|
D|------------------------|--------------------------|
A|------------------------|--------------------------|
E|-2-----1--0--1--2----0--|-1--2--1--0---3-----1-----|
B|------------------------|--------------------------|

G|------------------------|--------------------------|
D|------------------------|--------------------------|
A|------------------------|--------------------------|
E|-2-----1--0--1--2----0--|-1--2--1--0---3-----1-----|
B|------------------------|--------------------------|

G|------------------------|--------------------------|-----------------------|
D|------------------------|--------------------------|-----------------------|
A|------------------------|--------------------------|-----------------------|
E|-2-----1--0--1--2----0--|-1--2--1--2------2--------|------------3--4--3----|
B|------------------------|--------------1-----1-----|-----------------------|

G|-------------------------|------------------------|
D|----4-----------4--3~----|----4----------4--3~----|
A|-------------------------|------------------------|
E|-2-----2---0h2-----------|-2-----2--0h2-----------|
B|-------------------------|------------------------|

G|-------------------------|------------------------|
D|----4-----------4--3~----|------------------------|
A|-------------------------|------------------------|
E|-2-----2---0h2-----------|-7-----7-----8-----5----|
B|-------------------------|------------------------|


[Bridge]
G|-----------------------|------------------------|
D|-----------------------|------------------------|
A|-----------------------|------------------------|
E|-2----------3----------|/8----------7-8-7tr8----|
B|-----------------------|------------------------|

G|---------------------------|---------------------------|
D|---------------------------|---------------------------|
A|---------------------------|---------------------------|
E|-7-5-7-5-7-5-8----7--7--7--|-7-5-7-5-7-5-8----7--7--7--|
B|---------------------------|---------------------------|

G|-----------------------|------------------------|
D|-----------------------|------------------------|
A|-----------------------|------------------------|
E|-2----------3----------|/8----------7-8-7tr8----|
B|-----------------------|------------------------|

G|---------------------------|---------------------------|
D|---------------------------|---------------------------|
A|---------------------------|---------------------------|
E|-7-5-7-5-7-5-8----7--7--7--|-7-5-7-5-7-5-8----7--7--7--|
B|---------------------------|---------------------------|

                           6/4
G|-----------------------|----------------------------------|
D|-----------------------|----------------------------------|
A|-----------------------|----------------------------------|
E|-2----------3----------|/8----------7-8-7tr8----3----1----|
B|-----------------------|----------------------------------|


[Guitar Solo] 4/4 time
G|------------------------|--------------------------|
D|------------------------|--------------------------|
A|------------------------|--------------------------|
E|-2-----1--0--1--2----0--|-1--2--1--0---3-----1-----|
B|------------------------|--------------------------|

G|------------------------|--------------------------|
D|------------------------|--------------------------|
A|------------------------|--------------------------|
E|-2-----1--0--1--2----0--|-1--2--1--0---3-----1-----|
B|------------------------|--------------------------|

G|------------------------|--------------------------|
D|------------------------|--------------------------|
A|------------------------|--------------------------|
E|-2-----1--0--1--2----0--|-1--2--1--0---3-----1-----|
B|------------------------|--------------------------|

   6/4                                  4/4
G|------------------------------------|------------------------|
D|------------------------------------|------------------------|
A|------------------------------------|------------------------|
E|-2-----1--0--1--2----0--1--2--1--0--|-3----------0-----------|
B|------------------------------------|------------------------|

hold last note (E) for 4 more beats, then continue

G|-------------------------|-------------------------|-------------------|
D|-------------------------|-------------------------|-------------------|
A|-------------------------|-------------------------|-------------------|
E|-2--------2--2--------2--|-2--------2--2--------2--|-3--------0--------|
B|-------------------------|-------------------------|-------------------|

G|-------------------------|-------------------------|
D|-------------------------|-------------------------|
A|-------------------------|-------------------------|
E|-2--------2--2--------2--|-2--------2--2--------2--|
B|-------------------------|-------------------------|

   6/4
G|-------------------------------------|
D|-------------------------------------|
A|-------------------------------------|
E|-3--3--3--3--0--0--0--0--3~----1-----|
B|-------------------------------------|


[Final Chorus]
G|------------------------|--------------------------|
D|------------------------|--------------------------|
A|------------------------|--------------------------|
E|-2-----1--0--1--2----0--|-1--2--1--0---3-----1-----|
B|------------------------|--------------------------|

G|------------------------|--------------------------|
D|------------------------|--------------------------|
A|------------------------|--------------------------|
E|-2-----1--0--1--2----0--|-1--2--1--0---3-----1-----|
B|------------------------|--------------------------|

G|------------------------|--------------------------|
D|------------------------|--------------------------|
A|------------------------|--------------------------|
E|-2-----1--0--1--2----0--|-1--2--1--0---3-----1-----|
B|------------------------|--------------------------|

G|------------------------|--------------------------|-----------------------|
D|------------------------|--------------------------|-----------------------|
A|------------------------|--------------------------|------------2--3--2----|
E|-2-----1--0--1--2----0--|-1--2--1--0------2--------|-----------------------|
B|------------------------|--------------1-----1-----|-----------------------|

                            6/4
G|------------------------|--------------------------------------|
D|------------------------|--------------------------------------|
A|------------------------|--------------------------------------|
E|-3--4--3----------------|----2---------------------3--4--3-----|
B|------------------------|-1-----1------------------------------|


[Ending]
G|-------------------------|------------------------|
D|----4-----------4--3~----|----4----------4--3~----|
A|-------------------------|------------------------|
E|-2-----2---0h2-----------|-2-----2--0h2-----------|
B|-------------------------|------------------------|

G|-------------------------|------------------------|
D|----4-----------4--3~----|------------------------|
A|-------------------------|------------------------|
E|-2-----2---0h2-----------|-7-----7-----8-----5----|
B|-------------------------|------------------------|

G|-------------------------|------------------------|
D|----4-----------4--3~----|----4----------4--3~----|
A|-------------------------|------------------------|
E|-2-----2---0h2-----------|-2-----2--0h2-----------|
B|-------------------------|------------------------|

G|-------------------------|---------------------------|
D|----4-----------4--3~----|---------------------------|
A|-------------------------|---------------------------|
E|-2-----2---0h2-----------|-7-5-7-5-7-5-8----7--7--7--|
B|-------------------------|---------------------------|

G|---------------------------|----------------------|-----------------------|
D|---------------------------|----------------------|-----------------------|
A|---------------------------|----------------------|-----------------------|
E|-7-5-7-5-7-5-8----7--7--7--|-2---------3----------|-8----------7-8-7tr8---|
B|---------------------------|----------------------|-----------------------|

G|---------------------------|---------------------------|
D|---------------------------|---------------------------|
A|---------------------------|---------------------------|
E|-7-5-7-5-7-5-8----7--7--7--|-7-5-7-5-7-7-7-------------|
B|---------------------------|---------------------------|


Key:
| /   slide up
| \   slide down
| h   hammer-on
| p   pull-off
| ~   vibrato
| tr  trill, or alternate hammer-on and pull-off on note as needed 
Suggest correction
Give kudos to tab author, rate the tab!
1 2 3 4 5
comments
print report bad tab
guest
You may want to rate the tab now too:
select rating
Wanna post a correction for this tab? Suggest correction