Oops, an error
Loading. Please wait.

Murder One Tab

version 1
version 1

Whole song

  • Metallica's New song 'Murder One'.
  • There are no other current non-pro tabs. It's comp... Show more
  • ver 3 new
    Borrowed some ideas from initial versions. Fixed s... Show more

Interactive

2,680 views 627 this week
6 commentsread comments
1 2 3 4 5
x 4
add to favorites
launch autoscroll
font size
0
reset
how to read this tab
guitar tuner
Autoscroll
slow
fast
+/-
esc
set tempo
stop
Help us to improve Ultimate-Guitar.com Take our survey!
×
Author
Difficulty
intermediate
About this tab version
Metallica's New song 'Murder One'. Was this info helpful? Yes No
**READ**
[James's Electric Guitar Parts Only. The Riffs are in order, so you can just play along! ENJOY]

[Let me know in the comments if there are any mistakes!]
[RATE + COMMENT]
[FIRST 'MURDER ONE' TAB.]

*****************************************************

Tuning: Standard
Band: Metallica
Song: Murder One
Album: Hardwired... To Self-Destruct

******************************************************

[Intro]
Starts at: 0:17
e|-------------------------------|
B|-------------------------------|
G|-------------------------------|
D|-4---4---4------5-----4--4--4--|
A|-2-0-2-0-2-0----3-----2--2--2--|
E|-------------------------------| (4x)
                        *  *  *
e|----------------------------------------------------------|
B|----------------------------------------------------------|
G|---------0--------------0-------------0-------------------|
D|------4------------5------------10------------------------|
A|--2-----------3-------------8------------7-8------7h8h7---|
E|----------------------------------------------------------|

e|-------------------------------|
B|-------------------------------|
G|-------------------------------|
D|-4---4---4------5-----4--4--4--|
A|-2-0-2-0-2-0----3-----2--2--2--|
E|-------------------------------| 
                        *  *  *

e|----------------------------------------------------------|
B|----------------------------------------------------------|
G|--------0---------------0-------------0-------------------|
D|-----4------------5------------10-------------------------|
A|--2-------------3-------------8------------7-8------7h8h7-|
E|----------------------------------------------------------|

e|-------------------------------|
B|-------------------------------|
G|-------------------------------|
D|-4---4---4------5-----4--4--4--|
A|-2-0-2-0-2-0----3-----2--2--2--|
E|-------------------------------| 
                        *  *  *

e|-----------------|
B|-----------------|
G|-----------------|
D|-5--4--2--7----2~|
A|-3--2--0--5----2-|
E|---------------0-|
                    
[Main]
e|------|------------------------------|
B|------|------------------------------|
G|------|---------------------------^--|
D|------|------4---------------4----3--|
A|------|---------------------------3--|
E|-9/---|--2--------2----0--2----------| (3x)

e|------------------|
B|------------------|
G|------------------|
D|-4----4---5---2~--|
A|-2----2---3---0---|
E|------------------|

e|------------------------------|
B|------------------------------|
G|---------------------------^--|
D|-------4--------------4----3--|
A|---------------------------3--|
E|--2--------2----0--2----------| (3x)

e|------------------------|-----------|
B|------------------------|-----------|
G|------------------------|-----------|
D|----4-------------------|-----------|
A|-3-----3----3~----3~----|--5-6-5----|
E|------------------------|--3-4-3----|
                             * *

e|------------------------------|
B|------------------------------|
G|---------------------------^--|
D|------4---------------4----3--|
A|---------------------------3--|
E|--2--------2----0--2----------| (3x)

e|------------------|
B|------------------|
G|------------------|
D|-4----4---5---2---|
A|-2----2---3---0---|
E|------------------|

[Verse]
One Crown... 
e|---------------------------------|
B|---------------------------------|
G|---------------------------------|
D|---------------------------------|
A|-4~---2--5----------2--4--4--5---|
E|-2----0--3----------0--2--2--3---| (4x)

Aces wild, Aces High...
e|-------------------------------------------------------|
B|-------------------------------------------------------|
G|-------------------------------------------------------|
D|-------------------------------------------------------|
A|-7-7-8-5-----7-7-8-5-----9-9-10-7------9--10--11--12-/-|
E|-5-5-6-3-----5-5-6-3-----7-7-8--5------7--8---9---10-/-|

e|------------------------------|
B|------------------------------|
G|---------------------------^--|
D|------4---------------4----3--|
A|---------------------------3--|
E|--2--------2----0--2----------| (3x)

e|-------------------|
B|-------------------|
G|-------------------|
D|-4----4---5---2~---|
A|-2----2---3---0----|
E|-------------------|

[Chorus]
e|-------------------------------------------------------|
B|-------------------------------------------------------|
G|-0-----------------------------------------------------|
D|-0---2---4----------5---2----4-------5---2-------5--3--|
A|-2---2---4----------5---2----4-------5---2-------5--3--|
E|-3---0---2----------3---0----2-------3---0-------------|

e|------------------------------------------|
B|------------------------------------------|
G|------------------------------------------|
D|------------------------------------5--3--|
A|-4~----2--3--4------2--3--4--3--2---5--3--|
E|-2-----0--1--2------0--1--2--1--0---------| (3x)
         *  *  *      *  *  *  *  *

e|------------------------------------|
B|------------------------------------|
G|------------------------------------|
D|------------------------------------|
A|-4~----2--3--4------2--3--4--3--2---|
E|-2-----0--1--2------0--1--2--1--0---| 
         *  *  *      *  *  *  *  *
e|------------------------|-----------|
B|------------------------|-----------|
G|------------------------|-----------|
D|----4-------------------|-----------|
A|-3-----3----3~----3~----|--5-6-5----|
E|------------------------|--3-4-3----|
                             * *
e|------------------------------|
B|------------------------------|
G|---------------------------^--|
D|------4---------------4----3--|
A|---------------------------3--|
E|--2--------2----0--2----------| (3x)

e|------------------|
B|------------------|
G|------------------|
D|-4----4---5---2---|
A|-2----2---3---0---|
E|------------------|

[VERSE 2]
e|---------------------------------|
B|---------------------------------|
G|---------------------------------|
D|---------------------------------|
A|-4~---2--5----------2--4--4--5---|
E|-2----0--3----------0--2--2--3---| (4x)

e|-------------------------------------------------------|
B|-------------------------------------------------------|
G|-------------------------------------------------------|
D|-------------------------------------------------------|
A|-7-7-8-5-----7-7-8-5-----9-9-10-7------9--10--11--12-/-|
E|-5-5-6-3-----5-5-6-3-----7-7-8--5------7--8---9---10-/-|

e|------------------------------|
B|------------------------------|
G|---------------------------^--|
D|------4---------------4----3--|
A|---------------------------3--|
E|--2--------2----0--2----------| (3x)

e|-------------------|
B|-------------------|
G|-------------------|
D|-4----4---5---2~---|
A|-2----2---3---0----|
E|-------------------|

[Chorus]
e|-------------------------------------------------------|
B|-------------------------------------------------------|
G|-0-----------------------------------------------------|
D|-0---2---4----------5---2----4-------5---2-------5--3--|
A|-2---2---4----------5---2----4-------5---2-------5--3--|
E|-3---0---2----------3---0----2-------3---0-------------|

e|------------------------------------------|
B|------------------------------------------|
G|------------------------------------------|
D|------------------------------------5--3--|
A|-4~----2--3--4------2--3--4--3--2---5--3--|
E|-2-----0--1--2------0--1--2--1--0---------| (3x)
         *  *  *      *  *  *  *  *

e|------------------------------------|
B|------------------------------------|
G|------------------------------------|
D|------------------------------------|
A|-4~----2--3--4------2--3--4--3--2---|
E|-2-----0--1--2------0--1--2--1--0---| 
         *  *  *      *  *  *  *  *
e|------------------------|-----------|
B|------------------------|-----------|
G|------------------------|-----------|
D|----4-------------------|-----------|
A|-3-----3----3~----3~----|--5-6-5----|
E|------------------------|--3-4-3----|
                             * *
e|------|------------------------------|
B|------|------------------------------|
G|------|---------------------------^--|
D|------|------4---------------4----3--|
A|------|---------------------------3--|
E|-9/---|--2--------2----0--2----------| (3x)

e|------------------|
B|------------------|
G|------------------|
D|-4----4---5---2---|
A|-2----2---3---0---|
E|------------------|

[GROOVY THING AGAIN]
e|------------------------------|
B|------------------------------|
G|---------------------------^--|
D|------4---------------4----3--|
A|---------------------------3--|
E|--2--------2----0--2----------| (3x)

e|-------------------|
B|-------------------|
G|-------------------|
D|-4----4---5---2~---|
A|-2----2---3---0----|
E|-------------------|

e|--------------------------------------------------------|
B|--------------------------------------------------------|
G|--------------------------------------------------------|
D|-------0-------------0-------------0--------------------|
A|----4-------------5------------10-----------------------|
E|-2-------------3------------8--------------7-8---7h8h7--|

e|-----------------------------|
B|-----------------------------|
G|-----------------------------|
D|-----------------------------|
A|-4---4---4-----5---4-4-4-----|
E|-2-0-2-0-2-0---3---2-2-2-----| (2x)
                     * * *

e|--------------------------------------------------------|
B|--------------------------------------------------------|
G|--------------------------------------------------------|
D|-------0-------------0-------------0--------------------|
A|----4-------------5------------10-----------------------|
E|-2-------------3------------8--------------7-8---7h8h7--|

e|-----------------------------|
B|-----------------------------|
G|-----------------------------|
D|-----------------------------|
A|-4---4---4-----5---4-4-4-----|
E|-2-0-2-0-2-0---3---2-2-2-----| (2x)
                     * * *

e|--------------------------------------------------------|
B|--------------------------------------------------------|
G|--------------------------------------------------------|
D|-------0-------------0-------------0--------------------|
A|----4-------------5------------10-----------------------|
E|-2-------------3------------8--------------7-8---7h8h7--|

[Rhytm during solo]
e|--------|
B|--------|
G|--------|
D|-5--3---|
A|-5--3---|
E|--------|

e|------------------------------------------|
B|------------------------------------------|
G|------------------------------------------|
D|------------------------------------5--3--|
A|-4~----2--3--4------2--3--4--3--2---5--3--|
E|-2-----0--1--2------0--1--2--1--0---------| (3x)
         *  *  *      *  *  *  *  *

e|-------------------------------------------|
B|-------------------------------------------|
G|-------------------------------------------|
D|-------------------------------------------|
A|-4~----2--3--4------2--3--4--3--2---3-2~---|
E|-2-----0--1--2------0--1--2--1--0---5-0----|
         *  *  *      *  *  *  *  *

e|----------------------------------|--------|
B|----------------------------------|--------|
G|----------------------------------|--------|
D|----------------------------------|--------|
A|-4-----4-4------4-4-----4------4--|---5--2-|
E|-2-----2-2------2-2-----2------2--|---3--0-|

e|----------------------------------|
B|----------------------------------|
G|----------------------------------|
D|----------------------------------|
A|-4-----4-4------4-4-----4------4--|
E|-2-----2-2------2-2-----2------2--|

e|--------------------------|
B|--------------------------|
G|--------------------------|
D|-5-------2----------5-3---|
A|-5-5-5-5-2-2-2-2----5-3---|
E|-3-3-3-3-0-0-0-0----------| [End of Solo]
     * * *   * * *

e|------------------------------------------|
B|------------------------------------------|
G|------------------------------------------|
D|------------------------------------5--3--|
A|-4~----2--3--4------2--3--4--3--2---5--3--|
E|-2-----0--1--2------0--1--2--1--0---------| (3x)
         *  *  *      *  *  *  *  *

e|------------------------------------|
B|------------------------------------|
G|------------------------------------|
D|------------------------------------|
A|-4~----2--3--4------2--3--4--3--2---|
E|-2-----0--1--2------0--1--2--1--0---| 
         *  *  *      *  *  *  *  *

e|------------------------|-------------------|
B|------------------------|-------------------|
G|------------------------|-------------------|
D|----4-------------------|-4-5-4~------------|
A|-3-----3----3~----3~----|-2-3-2----5-6-5----|
E|------------------------|----------3-4-3----|
                            * *      * *

e|------------------------|------------|
B|------------------------|------------|
G|------------------------|------------|
D|----4-------------------|------------|
A|-3-----3----3~----3~----|--5-6-5~----|
E|------------------------|--3-4-3-----|
                             * *

e|------------------------------|
B|------------------------------|
G|---------------------------^--|
D|------4---------------4----3--|
A|---------------------------3--|
E|--2--------2----0--2----------| (3x)

e|-------------------|
B|-------------------|
G|-------------------|
D|-4----4---5---2~---|
A|-2----2---3---0----|
E|-------------------|

e|------------------------------|
B|------------------------------|
G|---------------------------^--|
D|------4---------------4----3--|
A|---------------------------3--|
E|--2--------2----0--2----------| (3x)

e|-----------------------------|
B|-----------------------------|
G|-----------------------------|
D|-----------------------------|
A|-4---4---4-----5---4-4-4-----|
E|-2-0-2-0-2-0---3---2-2-2-----| (2x)
                     * * *

e|--------------------------------------------------------|
B|--------------------------------------------------------|
G|--------------------------------------------------------|
D|-------0-------------0-------------0--------------------|
A|----4-------------5------------10-----------------------|
E|-2-------------3------------8--------------7-8---7h8h7--|

e|-----------------------------|
B|-----------------------------|
G|-----------------------------|
D|-----------------------------|
A|-4---4---4-----5---4-4-4-----|
E|-2-0-2-0-2-0---3---2-2-2-----|
                     * * *
e|-------------------|
B|-------------------|
G|-------------------|
D|-------------------|
A|-4---4---4------4~-|
E|-2-0-2-0-2-0----2--|

[THE END].

****************************************************************
It's in the correct order, Listen to the song for timing and stuff.

***********************************

| h   Hammer-on
| x   Dead note
| /   Slide-up
| pb  Pre-bend
| ~   Vibrato
| .   Staccato
| *   Palm Mut
| ^   1/5 bend

***********************************

METAL UP YOUR ASS!

***********************************
                     
Suggest correction
comments
print report bad tab
6 comments total. Showing first comments.
-1 reply
jordanbmonk 33 7 days ago

didn't like this contribution

+1 reply
thrashmetalx1 10 5 days ago

it was spot on dude missing a few little parts here and there but the rest is easy to pick up on!

0 reply
Metallica053 80 5 days ago

Im glad you like the tab! What parts am I missing? It's only the rhytm parts of James.. not the clean or lead parts.. Let me know what I'm missing, so I can fix it!

Thanks!

guest
You may want to rate the tab now too:
select rating
Wanna post a correction for this tab? Suggest correction