Oops, an error
Loading. Please wait.

Murder One Bass Tab

version 2
version 2

Whole song

  • First bass version. Covers riffs for entire song, ... Show more
  • Bass Tab for 'Murder One' a great song by Metallica.

Interactive

46 views 24 this week
no commentswrite comment
1 2 3 4 5
3 more votes to show rating
add to favorites
launch autoscroll
font size
0
reset
guitar tuner
Autoscroll
slow
fast
+/-
esc
set tempo
stop
Help us to improve Ultimate-Guitar.com Take our survey!
×
Author
Difficulty
Tuning
intermediate
B E A D F# B
About this tab version
Bass Tab for 'Murder One' a great song by Metallica. Was this info helpful? Yes No
Band: Metallica
Song: Murder One
Tuning: B


RATE + COMMENT



[Enjoy] 


[Intro]

Starts at 0:17
D|-------------------------------------|
A|--2--0--2--0--2--0--3-------2--2--2--|
E|-------------------------------------|
B|-------------------------------------| (2x)

D|----------------------------3------------2----|
A|--2-----------3-------------------------------|
E|----------------------------------------------|
B|----------------------------------------------|

D|-------------------------------------|
A|--2--0--2--0--2--0--3-------2--2--2--|
E|-------------------------------------|
B|-------------------------------------|

D|----------------------------3------------2----|
A|--2-----------3-------------------------------|
E|----------------------------------------------|
B|----------------------------------------------|

D|-------------------------------------|---------------------------|
A|--2--0--2--0--2--0--3-------2--2--2--|-----3---2---0---5---------|
E|-------------------------------------|---------------------0~----|
B|-------------------------------------|---------------------------|



[Main Groove]

D|---------------------|-------------------|-------------------|-------------------|
A|---------------------|-------------------|-------------------|--2---2---3---0----|
E|--9------------------|-------------------|-------------------|-------------------|
B|----7--7--5--7---6\--|--7--7--5--7---6\--|--7--7--5--7---6\--|-------------------|

D|---------------------|-------------------|-------------------|-------------------|
A|---------------------|-------------------|-------------------|-------------------|
E|---------------------|-------------------|-------------------|----3--------------|
B|----7--7--5--7---6\--|--7--7--5--7---6\--|--7--7--5--7---6\--|--1---1--1--1------|

D|------------|
A|------------|
E|-----4------|
B|--3-----3---|

D|---------------------|-------------------|-------------------|-------------------|
A|---------------------|-------------------|-------------------|--2---2---3---0----|
E|---------------------|-------------------|-------------------|-------------------|
B|----7--7--5--7---6\--|--7--7--5--7---6\--|--7--7--5--7---6\--|-------------------|

[Verse]

D|---------------------|-----------|
A|---------------------|-----------|
E|--2~-----\0--3----0--|--2--2--3--|
B|---------------------|-----------| (4x)

D|-------------------------------------------------------------|
A|-------------------------------------------------------------|
E|--5--5--6--3-----5--5--6--3----7--7--8--5----7--8--9--10\----|
B|-------------------------------------------------------------|

D|---------------------|-------------------|-------------------|-------------------|
A|---------------------|-------------------|-------------------|--2---2---3---0~---|
E|--9------------------|-------------------|-------------------|-------------------|
B|----7--7--5--7---6\--|--7--7--5--7---6\--|--7--7--5--7---6\--|-------------------|


[Chorus]

D|---------------|---------------|---------------------|
A|---------------|---------------|---------------------|
E|--3----0----2--|--3----0----2--|--3----0----3----1---|
B|---------------|---------------|---------------------|

D|------------------------------------------------|
A|------------------------------------------------|
E|---2~---0--1--2-----0--1--2--1--0-------3---1---|
B|------------------------------------------------| (3x)

D|------------------------------------|---------------------|-----------|
A|------------------------------------|---------------------|-----------|
E|---2~---0--1--2-----0--1--2--1--0---|------2--------------|--3--4--3--|
B|------------------------------------|---1-----1---1---1---|-----------|

--MAIN GROOVE--
--VERSE--
--CHORUS--
--MAIN GROOVE--

D|----------------------------------|
A|----------------------------------|
E|--2-------3-------8------7--------|
B|----------------------------------|

D|----------------------------------|
A|----------------------------------|
E|--2--0--2--0--2--0--3----2--2--2--|
B|----------------------------------| (2x)

D|----------------------------------|
A|----------------------------------|
E|--2-------3-------8------7--------|
B|----------------------------------|

D|----------------------------------|
A|----------------------------------|
E|--2--0--2--0--2--0--3----2--2--2--|
B|----------------------------------|
                               
D|----------------------------|---------|
A|----------------------------|---------|
E|--2-------3-------8------7--|--3---1--|
B|----------------------------|---------|
 
[Solo]

D|------------------------------------------------|
A|------------------------------------------------|
E|---2~---0--1--2-----0--1--2--1--0-------3---1---|
B|------------------------------------------------| (3x)

D|--------------|----------|
A|--------------|----------|
E|--1--2--1--0--|--3---0~--|
B|--------------|----------|

D|-----------------------------------------|----------|
A|-----------------------------------------|----------|
E|--2------2--2------2--2------2--2-----2--|--3---0~--|
B|-----------------------------------------|----------|

D|-----------------------------------------|--------------------------|--------|
A|-----------------------------------------|--------------------------|--------|
E|--2------2--2------2--2------2--2-----2--|--3--3--3--3--0--0--0--0--|--3--1--|
B|-----------------------------------------|--------------------------|--------|

D|------------------------------------------------|
A|------------------------------------------------|
E|---2~---0--1--2-----0--1--2--1--0-------3---1---|
B|------------------------------------------------| (3x)

D|------------------------------------|---------------------|--------------------|
A|------------------------------------|---------------------|--2--3--2-----------|
E|---2~---0--1--2-----0--1--2--1--0---|------2--------------|-----------3--4--3--|
B|------------------------------------|---1-----1---1---1---|--------------------| 

[Outro]

D|------------------------------------|---------------------|-----------|
A|------------------------------------|---------------------|-----------|
E|------------------------------------|------2--------------|--3--4--3--|
B|------------------------------------|---1-----1---1---1---|-----------| 

D|---------------------|-------------------|-------------------|-------------------|
A|---------------------|-------------------|-------------------|--2---2---3---0~---|
E|---------------------|-------------------|-------------------|-------------------|
B|----7--7--5--7---6\--|--7--7--5--7---6\--|--7--7--5--7---6\--|-------------------|

D|---------------------|-------------------|-------------------|
A|---------------------|-------------------|-------------------|
E|---------------------|-------------------|-------------------|
B|----7--7--5--7---6\--|--7--7--5--7---6\--|--7--7--5--7---6\--|

D|----------------------------------|
A|----------------------------------|
E|--2--0--2--0--2--0--3----2--2--2--|
B|----------------------------------|
                               
D|----------------------------|
A|----------------------------|
E|--2-------3-------8------7--|
B|----------------------------|

D|----------------------------------|
A|----------------------------------|
E|--2--0--2--0--2--0--3----2--2--2--|
B|----------------------------------|

D|----------------------------------|
A|----------------------------------|
E|--2--0--2--0--2--0--2~------------|
B|----------------------------------|

************************************

| ~  Vibrato
| \  Slide down

************************************

[FIRST BASS TAB]

'Murder One' Guitar Tab: https://tabs.ultimate-guitar.com/m/metallica/murder_one_tab.htm
Suggest correction
Give kudos to tab author, rate the tab!
1 2 3 4 5
comments
print report bad tab
guest
You may want to rate the tab now too:
select rating
Wanna post a correction for this tab? Suggest correction