Oops, an error
Loading. Please wait.

Murder One Tab

version 3
version 3

Whole song

  • Metallica's New song 'Murder One'.
  • There are no other current non-pro tabs. It's comp... Show more
  • Borrowed some ideas from initial versions. Fixed s... Show more

Interactive

388 views 150 this week
no commentswrite comment
1 2 3 4 5
2 more votes to show rating
add to favorites
launch autoscroll
font size
0
reset
how to read this tab
guitar tuner
Autoscroll
slow
fast
+/-
esc
set tempo
stop
Help us to improve Ultimate-Guitar.com Take our survey!
×
Author
Difficulty
intermediate
About this tab version
Borrowed some ideas from initial versions. Fixed some riffs and added the solo to make the first complete tab. Was this info helpful? Yes No
Metallica - "Murder One"
From "Hardwired... to Self Destruct"
Tuning: E Standard
tabbed by jjhand

Note that occasional bars with 6 beats are marked 6/4, but most of the song is
4 beats per measure. Enjoy, and please rate or comment.

[clean intro] - 
   Rhythm Guitar
e|-----------------|------------------|-----------------|-----------------|
B|-----------------|------------------|-----------------|-----------------|
G|-----0-------0---|------0-------0---|-----0-------0---|-----0-------0---|
D|---4-------5-----|---10-------9-----|---4-------5-----|---10------9-----|
A|-2-------3-------|-8--------7-------|-2-------3-------|-8-------7-------|
E|-----------------|------------------|-----------------|-----------------|
 |
 | Lead Guitar
e|-2---------------|------------------|-2---------------|-----------------|
B|-0---------------|------------------|-0---------------|-----------------|
G|-----------------|------------------|-----------------|-----------------|
D|-----------------|------------------|-----------------|-----------------|
A|-----------------|------------------|-----------------|-----------------|
E|-----------------|------------------|-----------------|-----------------|



Distorted - both guitars
e|------------------------|------------------------|
B|------------------------|------------------------|
G|------------------------|------------------------|
D|-4---4---4---5---4-4-4--|-4---4---4---5---4-4-4--|
A|-2-0-2-0-2-0-3---2-2-2--|-2-0-2-0-2-0-3---2-2-2--|
E|-----------------*-*-*--|-----------------*-*-*--|


  Clean Rhythm Guitar
e|-----------------|------------------|
B|-----------------|------------------|
G|-----0-------0---|------0-------0---|
D|---4-------5-----|---10-------9-----|
A|-2-------3-------|-8--------7-------|
E|-----------------|------------------|
 |
 |Clean Lead Guitar
e|-2---------------|------------------|
B|-0---------------|------------------|
G|-----------------|------------------|
D|-----------------|------------------|
A|-----------------|------------------|
E|-----------------|------------------|


Distorted - both guitars
e|------------------------|------------------------|
B|------------------------|------------------------|
G|------------------------|------------------------|
D|-4---4---4---5---4-4-4--|-4---4---4---5---4-4-4--|
A|-2-0-2-0-2-0-3---2-2-2--|-2-0-2-0-2-0-3---2-2-2--|
E|-----------------*-*-*--|-----------------*-*-*--|

e|-------------------------------|------------------------|
B|-------------------------------|------------------------|
G|-----0-----0-------0-----------|------------------------|
D|---4-----5------10-------------|-4---4---4---5---4-4-4--|
A|-2-----3------8------7-8-7tr8--|-2-0-2-0-2-0-3---2-2-2--|
E|-------------------------------|------------------------|

e|-------------------------------|------------------------|
B|-------------------------------|------------------------|
G|-----0-----0-------0-----------|------------------------|
D|---4-----5------10-------------|-4---4---4---5---4-4-4--|
A|-2-----3------8------7-8-7tr8--|-2-0-2-0-2-0-3---2-2-2--|
E|-------------------------------|------------------------|
                                                  
e|------------------|----------------|--------------------|
B|------------------|----------------|--------------------|
G|------------------|----------------|--------------------|
D|-5---4---2---7\---|----------------|--------------------|
A|-3---2---0---5\---|-2--------------|-(2)----------------|
E|------------------|-0--------------|-(0)----------12\---|



[Verse]     
e|--------------------|--------------------|-------------------|---------------------|
B|--------------------|--------------------|-------------------|---------------------|
G|--------------------|--------------------|-------------------|---------------------|
D|---4---------4-3~---|---4---------4-3~---|---4--------4-3~---|-4----4----5----2----|
A|---------------3~---|---------------3~---|--------------3~---|-2----2----3----0----|
E|-2---2---0h2--------|-2---2---0h2--------|-2---2--0h2--------|---------------------|
                                                                              
                                                                6/4
e|--------------------|--------------------|-------------------|------------------------|
B|--------------------|--------------------|-------------------|------------------------|
G|--------------------|--------------------|-------------------|------------------------|
D|---4---------4-3~---|---4---------4-3~---|---4--------4-3~---|---4--------------------|
A|---------------3~---|---------------3~---|--------------3~---|-3---3~---3~-3~-5-6-5---|
E|-2---2---0h2--------|-2---2---0h2--------|-2---2--0h2--------|----------------3-4-3---|
                                                                                * * *

e|--------------------|--------------------|-------------------|---------------------|
B|--------------------|--------------------|-------------------|---------------------|
G|--------------------|--------------------|-------------------|---------------------|
D|---4---------4-3~---|---4---------4-3~---|---4--------4-3~---|-4----4----5----2----|
A|---------------3~---|---------------3~---|--------------3~---|-2----2----3----0----|
E|-2---2---0h2--------|-2---2---0h2--------|-2---2--0h2--------|-2----2----3---------|


Vocals begin
e|------------------|-------------------|------------------|-------------------|
B|------------------|-------------------|------------------|-------------------|
G|------------------|-------------------|------------------|-------------------|
D|------------------|-------------------|------------------|-------------------|
A|-4--------5-------|-4---4---5---------|-4--------5-------|-4---4---5---------|
E|-2------0-3-----0-|-2---2---3---------|-2------0-3-----0-|-2---2---3---------|
   "One crown     shines on through the sound. One crown     born to lose"

e|------------------|-------------------|------------------|-------------------|
B|------------------|-------------------|------------------|-------------------|
G|------------------|-------------------|------------------|-------------------|
D|------------------|-------------------|------------------|-------------------|
A|-4--------5-------|-4---4---5---------|-4--------5-------|-4---4---5---------|
E|-2------0-3-----0-|-2---2---3---------|-2------0-3-----0-|-2---2---3---------|
    "One man         does not give a damn   one man          no excuse"

e|-----------------|-----------------|-----------------|------------------|
B|-----------------|-----------------|-----------------|------------------|
G|-----------------|-----------------|-----------------|------------------|
D|-----------------|-----------------|-----------------|------------------|
A|-7---7---8---5---|-7---7---8---5---|-9---9---10--7---|-9---10--11--12---|
E|-5---5---6---3---|-5---5---6---3---|-7---7---8---5---|-7---8---9---10---|
   "Aces wild,       aces high,        all the aces      aces till you die"

e|--------------------|--------------------|-------------------|---------------------|
B|--------------------|--------------------|-------------------|---------------------|
G|--------------------|--------------------|-------------------|---------------------|
D|---4---------4-3~---|---4---------4-3~---|---4--------4-3~---|-4----4----5----2----|
A|---------------3~---|---------------3~---|--------------3~---|-2----2----3----0----|
E|-2---2---0h2--------|-2---2---0h2--------|-2---2--0h2--------|---------------------|



[Prechorus]

 6/4                        4/4 again
e|-------------------------|--------------------|--------------------|
B|-------------------------|--------------------|--------------------|
G|-------------------------|--------------------|--------------------|
D|-(2)-----5-------2-------|-4------------------|-5--------2---------|
A|-(0)-----5-------2-------|-4------------------|-5--------2---------|
E|---------3-------0-------|-2------------------|-3--------0---------|
                            "White lights fading"

                       6/4
e|--------------------|----------------------------|
B|--------------------|----------------------------|
G|--------------------|----------------------------|
D|-4------------------|-5--------2---------5---3---|
A|-4------------------|-5--------2---------5---3---|
E|-2------------------|-3--------0---------3---1---|
    "The iron horse rolls on and on and on"



[Chorus]
         *  *  *  *    *    *  *  *  *
e|------------------------|-------------------------|
B|------------------------|-------------------------|
G|------------------------|-------------------------|
D|-4-----3--2--3--4----2--|-3--4--3--2--5-----3-----|
A|-4-----3--2--3--4----2--|-3--4--3--2--5-----3-----|
E|-2----------------------|-------------3-----1-----|
       "Hear your thunder"

         *  *  *  *    *    *  *  *  *
e|------------------------|-------------------------|
B|------------------------|-------------------------|
G|------------------------|-------------------------|
D|-4-----3--2--3--4----2--|-3--4--3--2--5-----3-----|
A|-4-----3--2--3--4----2--|-3--4--3--2--5-----3-----|
E|-2----------------------|-------------3-----1-----|
       "Still feeding back"

         *  *  *  *    *    *  *  *  *
e|------------------------|-------------------------|
B|------------------------|-------------------------|
G|------------------------|-------------------------|
D|-4-----3--2--3--4----2--|-3--4--3--2--5-----3-----|
A|-4-----3--2--3--4----2--|-3--4--3--2--5-----3-----|
E|-2----------------------|-------------3-----1-----|
       "Still hear your thunder"                            
                                           
         *  *  *  *    *    *  *  *  *              
e|------------------------|------------------------|-------------------------|
B|------------------------|------------------------|-------------------------|
G|------------------------|------------------------|-------------------------|
D|-4-----3--2--3--4----2--|-3--4--3--4-----4-------|-------------------------|
A|-4-----3--2--3--4----2--|-3--4--3--4--3-----3----|-3~----3~----5--6--5-----|
E|-2----------------------|------------------------|-------------3--4--3-----|
       "The man in black                born to lose,            living to win"  
  


[Turnaround]
e|--------------------|--------------------|-------------------|---------------------|
B|--------------------|--------------------|-------------------|---------------------|
G|--------------------|--------------------|-------------------|---------------------|
D|---4---------4-3~---|---4---------4-3~---|---4--------4-3~---|-4----4----5----2----|
A|---------------3~---|---------------3~---|--------------3~---|-2----2----3----0----|
E|-2---2---0h2--------|-2---2---0h2--------|-2---2--0h2--------|---------------------|


[Verse 2]
e|------------------|-------------------|------------------|-------------------|
B|------------------|-------------------|------------------|-------------------|
G|------------------|-------------------|------------------|-------------------|
D|------------------|-------------------|------------------|-------------------|
A|-4--------5-------|-4---4---5---------|-4--------5-------|-4---4---5---------|
E|-2------0-3-----0-|-2---2---3---------|-2------0-3-----0-|-2---2---3---------|
  "One fist       hammers through the mist.  One fist        steady on"

e|------------------|-------------------|------------------|-------------------|
B|------------------|-------------------|------------------|-------------------|
G|------------------|-------------------|------------------|-------------------|
D|------------------|-------------------|------------------|-------------------|
A|-4--------5-------|-4---4---5---------|-4--------5-------|-4---4---5---------|
E|-2------0-3-----0-|-2---2---3---------|-2------0-3-----0-|-2---2---3---------|
  "One heart        die hard from the start. One heart       beats its song"

e|-----------------|-----------------|-----------------|------------------|
B|-----------------|-----------------|-----------------|------------------|
G|-----------------|-----------------|-----------------|------------------|
D|-----------------|-----------------|-----------------|------------------|
A|-7---7---8---5---|-7---7---8---5---|-9---9---10--7---|-9---10--11--12---|
E|-5---5---6---3---|-5---5---6---3---|-7---7---8---5---|-7---8---9---10---|
  "Murder all,       murder one,       give me murder    second class to none"      

e|--------------------|--------------------|-------------------|---------------------|
B|--------------------|--------------------|-------------------|---------------------|
G|--------------------|--------------------|-------------------|---------------------|
D|---4---------4-3~---|---4---------4-3~---|---4--------4-3~---|-4----4----5----2----|
A|---------------3~---|---------------3~---|--------------3~---|-2----2----3----0----|
E|-2---2---0h2--------|-2---2---0h2--------|-2---2--0h2--------|---------------------|


[Prechorus 2]

 6/4                        4/4 again
e|-------------------------|--------------------|--------------------|
B|-------------------------|--------------------|--------------------|
G|-------------------------|--------------------|--------------------|
D|-(2)-----5-------2-------|-4------------------|-5--------2---------|
A|-(0)-----5-------2-------|-4------------------|-5--------2---------|
E|---------3-------0-------|-2------------------|-3--------0---------|
                            "Headlights fading"

                       6/4
e|--------------------|----------------------------|
B|--------------------|----------------------------|
G|--------------------|----------------------------|
D|-4------------------|-5--------2---------5---3---|
A|-4------------------|-5--------2---------5---3---|
E|-2------------------|-3--------0---------3---1---|
    "The iron horse rolls on and on and on"



[Chorus 2]
         *  *  *  *  *  *    *  *  *  *
e|------------------------|-------------------------|
B|------------------------|-------------------------|
G|------------------------|-------------------------|
D|-4-----3--2--3--4----2--|-3--4--3--2--5-----3-----|
A|-4-----3--2--3--4----2--|-3--4--3--2--5-----3-----|
E|-2----------------------|-------------3-----1-----|
       "Hear your thunder"

         *  *  *  *    *    *  *  *  *
e|------------------------|-------------------------|
B|------------------------|-------------------------|
G|------------------------|-------------------------|
D|-4-----3--2--3--4----2--|-3--4--3--2--5-----3-----|
A|-4-----3--2--3--4----2--|-3--4--3--2--5-----3-----|
E|-2----------------------|-------------3-----1-----|
       "Still feeding back"

         *  *  *  *    *    *  *  *  *
e|------------------------|-------------------------|
B|------------------------|-------------------------|
G|------------------------|-------------------------|
D|-4-----3--2--3--4----2--|-3--4--3--2--5-----3-----|
A|-4-----3--2--3--4----2--|-3--4--3--2--5-----3-----|
E|-2----------------------|-------------3-----1-----|
       "Still hear your thunder"                            
                                           
         *  *  *  *    *    *  *  *  *              
e|------------------------|------------------------|-------------------------|
B|------------------------|------------------------|-------------------------|
G|------------------------|------------------------|-------------------------|
D|-4-----3--2--3--4----2--|-3--4--3--4-----4-------|-------------------------|
A|-4-----3--2--3--4----2--|-3--4--3--4--3-----3----|-3~----3~----5--6--5-----|
E|-2----------------------|------------------------|-------------3--4--3-----|
       "The man in black                born to lose,            living to win"  


e|--------------------|--------------------|-------------------|---------------------|
B|--------------------|--------------------|-------------------|---------------------|
G|--------------------|--------------------|-------------------|---------------------|
D|---4---------4-3~---|---4---------4-3~---|---4--------4-3~---|-4----4----5----2----|
A|---------------3~---|---------------3~---|--------------3~---|-2----2----3----0----|
E|-2---2---0h2--------|-2---2---0h2--------|-2---2--0h2--------|-2----2----3---------|


[Bridge]
e|----------------------------|----------------------------|
B|----------------------------|----------------------------|
G|----------------------------|----------------------------|
D|---------0------------0-----|---------0------------------|
A|-----4-------------5--------|-----10---------------------|
E|-2-------------3------------|-8--------------7-8-7tr8----|

e|--------------------------|--------------------------|
B|--------------------------|--------------------------|
G|--------------------------|--------------------------|
D|-------------------*-*-*--|-------------------*-*-*--|
A|-------------5-----4-4-4--|-------------5-----4-4-4--|
E|-2p0-2p0-2p0-3-----2-2-2--|-2p0-2p0-2p0-3-----2-2-2--|

e|----------------------------|----------------------------|
B|----------------------------|----------------------------|
G|----------------------------|----------------------------|
D|---------0------------0-----|---------0------------------|
A|-----4-------------5--------|-----10---------------------|
E|-2-------------3------------|-8--------------7-8-7tr8----|

e|--------------------------|--------------------------|
B|--------------------------|--------------------------|
G|--------------------------|--------------------------|
D|-------------------*-*-*--|-------------------*-*-*--|
A|-------------5-----4-4-4--|-------------5-----4-4-4--|
E|-2p0-2p0-2p0-3-----2-2-2--|-2p0-2p0-2p0-3-----2-2-2--|

                                6/4
e|----------------------------|-------------------------------------|
B|----------------------------|-------------------------------------|
G|----------------------------|-------------------------------------|
D|---------0-------------0----|---------0-----------------5----3----|
A|-----4-------------5--------|-----10--------------------5----3----|
E|-2-------------3------------|-8-------------7-8-7tr8----3----1----|



[Solo]
   tremelo picking- shown as multiples of same notes for ease in reading
e|---------------------------|--------------------14h17p14-|
B|{17-16-14}-play 8x---------|{17-16-14}-play 7x-----------|
G|---------------------------|-----------------------------|
D|---------------------------|-----------------------------|
A|---------------------------|-----------------------------|
E|---------------------------|-----------------------------|

e|---------17p14--------17p14--------17p14---------|
B|-17p16p14-----17p16p14-----17p16p14-----17p16p14-|
G|-------------------------------------------------|
D|-------------------------------------------------|
A|-------------------------------------------------|
E|-------------------------------------------------|

e|------------------------------------------14-|
B|---14-17-14--------14~---17b19-b19~--14-17---|
G|-16--------16p14h16--------------------------|
D|---------------------------------------------|
A|---------------------------------------------|
E|---------------------------------------------|

e|--------------14--------------|----------------------------------|
B|-17b19---14-17--17b19---14-17-|-14----14-17-------------17______-|
G|------------------------------|----16-------14----14-16---16b18_-|
D|------------------------------|----------------16----------------|
A|------------------------------|----------------------------------|
E|------------------------------|----------------------------------|

   6/4            release bend slightly and pick each time
e|------------------------------------------------------|
B|-(17)------------17---17---17---17--------------------|
G|-(16b18)---------b18r-b18r-b18r-b18r-16b18r16-14------|
D|-------------------------------------------------16~--|
A|------------------------------------------------------|
E|------------------------------------------------------|

e|---------------------------------------------|---------------------------------------|
B|---------------------------------------------|---------------------------------------|
G|------------14--------------------14---------|------------16-------------------------|
D|-14h16-16-16--16-16-16-14h16-16-16--16-16-16-|-14h16-16-16--16-14--------------------|
A|---------------------------------------------|-------------------16-15-14-12/14\12---|
E|---------------------------------------------|---------------------------------------|

e|-------------------------------------------|-------------------------------------|
B|-------------------------------------------|-------17----------------------------|
G|-16b18r16-14----16b18-16b18r16-14----16b18-|-16b18___----16b18-16b18r16-14--14---|
D|------------16-------------------16--------|------------------------------16-----|
A|-------------------------------------------|-------------------------------------|
E|-------------------------------------------|-------------------------------------|

e|----------------------------------(14)---------(14)--|
B|---------14-----------14-----------14-----------14---|
G|-14-16-17--17-14-16-17--17-14-16-17--17-14-16-17--17-|
D|-----------------------------------------------------|
A|-----------------------------------------------------|
E|-----------------------------------------------------|

e|--------(14)---------(14)---------(14)---------(14)--|----------------------------------------|
B|---------14-----------14-----------14-----------14---|----------------------------------------|
G|-14-16-17--17-14-16-17--17-14-16-17--17-14-16-17--17-|-16b18r16-14----16b18-16b18r16-14----14-|
D|-----------------------------------------------------|------------16-------------------16-----|
A|-----------------------------------------------------|----------------------------------------|
E|-----------------------------------------------------|----------------------------------------|

   6/4
e|--------14-------------14------------------------------------------------------------|------|
B|----------14-14-17b19----17-14-----14-17-14--14--------------------------------------|------|
G|-16b18------------------------16b18--------17--17-16-14--14h16p14--------------------|------|
D|-------------------------------------------------------16--------16-14---------------|------|
A|----------------------------------------------------------------------16-14-12-14-12-|------|
E|-------------------------------------------------------------------------------------|14----|


[Solo - Rhythm Guitar]  play similar to chorus riff:
e|-------------------------|-------------------------|
B|-------------------------|-------------------------|
G|-------------------------|-------------------------|
D|-4-----3--2--3--4-----2--|-3--4--3--2--5-----3-----|
A|-4-----3--2--3--4-----2--|-3--4--3--2--5-----3-----|
E|-2-----------------------|-------------3-----1-----|
         *  *  *  *     *    *  *  *  *

e|-------------------------|-------------------------|
B|-------------------------|-------------------------|
G|-------------------------|-------------------------|
D|-4-----3--2--3--4-----2--|-3--4--3--2--5-----3-----|
A|-4-----3--2--3--4-----2--|-3--4--3--2--5-----3-----|
E|-2-----------------------|-------------3-----1-----|
         *  *  *  *     *    *  *  *  *

e|-------------------------|-------------------------|
B|-------------------------|-------------------------|
G|-------------------------|-------------------------|
D|-4-----3--2--3--4-----2--|-3--4--3--2--5-----3-----|
A|-4-----3--2--3--4-----2--|-3--4--3--2--5-----3-----|
E|-2-----------------------|-------------3-----1-----|
         *  *  *  *     *    *  *  *  *

   6/4                                  4/4 again
e|------------------------------------|-----------------------|-----------------------|
B|------------------------------------|-----------------------|-----------------------|
G|------------------------------------|-----------------------|-----------------------|
D|-4-----3--2--3--4-----2--3--4--3--2-|-5----------2----------|-(2)-------------------|
A|-4-----3--2--3--4-----2--3--4--3--2-|-5----------2----------|-(2)-------------------|
E|-2----------------------------------|-3----------0----------|-(0)-------------------|
         *  *  *  *     *  *  *  *  *

e|--------------------------------|--------------------------------|------------------------|
B|--------------------------------|--------------------------------|------------------------|
G|--------------------------------|--------------------------------|------------------------|
D|-4------------4--4------------4-|-4------------4--4------------4-|-5----------2-----------|
A|-4------------4--4------------4-|-4------------4--4------------4-|-5----------2-----------|
E|-2--2.2N-2.2N-2--2--2.2N-2.2N-2-|-2--2.2N-2.2N-2--2--2.2N-2.2N-2-|-3----------0-----------|

e|--------------------------------|--------------------------------|
B|--------------------------------|--------------------------------|
G|--------------------------------|--------------------------------|
D|-4------------4--4------------4-|-4------------4--4------------4-|
A|-4------------4--4------------4-|-4------------4--4------------4-|
E|-2--2.2N-2.2N-2--2--2.2N-2.2N-2-|-2--2.2N-2.2N-2--2--2.2N-2.2N-2-|

   6/4
e|-------------------------------------|
B|-------------------------------------|
G|-------------------------------------|
D|-5--5--5--5--2--2--2--2--5~----3-----|
A|-5--5--5--5--2--2--2--2--5~----3-----|
E|-3--3--3--3--0--0--0--0--3~----1-----|
   *  *  *  *  *  *  *  *  


[Final Chorus]
         *  *  *  *     *    *  *  *  *
e|-------------------------|-------------------------|
B|-------------------------|-------------------------|
G|-------------------------|-------------------------|
D|-4-----3--2--3--4-----2--|-3--4--3--2--5-----3-----|
A|-4-----3--2--3--4-----2--|-3--4--3--2--5-----3-----|
E|-2-----------------------|-------------3-----1-----|
       "Hear your thunder"

         *  *  *  *     *    *  *  *  *
e|-------------------------|-------------------------|
B|-------------------------|-------------------------|
G|-------------------------|-------------------------|
D|-4-----3--2--3--4-----2--|-3--4--3--2--5-----3-----|
A|-4-----3--2--3--4-----2--|-3--4--3--2--5-----3-----|
E|-2-----------------------|-------------3-----1-----|
       "Still feeding back"

         *  *  *  *     *    *  *  *  *
e|-------------------------|-------------------------|
B|-------------------------|-------------------------|
G|-------------------------|-------------------------|
D|-4-----3--2--3--4-----2--|-3--4--3--2--5-----3-----|
A|-4-----3--2--3--4-----2--|-3--4--3--2--5-----3-----|
E|-2-----------------------|-------------3-----1-----|
       "Still hear your thunder"                            
                                           
         *  *  *  *     *    *  *  *  *              
e|-------------------------|------------------------|-------------------------|
B|-------------------------|------------------------|-------------------------|
G|-------------------------|------------------------|-------------------------|
D|-4-----3--2--3--4-----2--|-3--4--3--4-----4-------|-------------4--5--4-----|
A|-4-----3--2--3--4-----2--|-3--4--3--4--3-----3----|-3~----3~----2--3--2-----|
E|-2-----------------------|------------------------|-------------------------|
       "The man in black                born to lose"              

                             6/4
e|-------------------------|-----------------------------------|
B|-------------------------|-----------------------------------|
G|-------------------------|-----------------------------------|
D|-------------------------|----4------------------------------|
A|-5--6--------------------|-3-----3~----3~----3~---5--6--5----|
E|-3--4--3~~~~~------------|------------------------3--4--3----|
   "No excuse,                till the end      been living to win"



[Ending]
e|--------------------|--------------------|-------------------|---------------------|
B|--------------------|--------------------|-------------------|---------------------|
G|--------------------|--------------------|-------------------|---------------------|
D|---4---------4-3~---|---4---------4-3~---|---4--------4-3~---|-4----4----5----2----|
A|---------------3~---|---------------3~---|--------------3~---|-2----2----3----0----|
E|-2---2---0h2--------|-2---2---0h2--------|-2---2--0h2--------|---------------------|

e|--------------------|--------------------|-------------------|
B|--------------------|--------------------|-------------------|
G|--------------------|--------------------|-------------------|
D|---4---------4-3~---|---4---------4-3~---|---4--------4-3~---|
A|---------------3~---|---------------3~---|--------------3~---|
E|-2---2---0h2--------|-2---2---0h2--------|-2---2--0h2--------|

e|------------------------|------------------------|
B|------------------------|------------------------|
G|------------------------|------------------------|
D|-----------------*-*-*--|-----------------*-*-*--|
A|-------------5---4-4-4--|-------------5---4-4-4--|
E|-2p0-2p0-2p0-3---2-2-2--|-2p0-2p0-2p0-3---2-2-2--|

e|-----------------------|------------------------|
B|-----------------------|------------------------|
G|-----------------------|------------------------|
D|-------0----------0----|-------0----------------|
A|----4----------5-------|----10------------------|
E|-2----------3----------|-8----------7-8-7tr8----|

e|------------------------|------------------------|
B|------------------------|------------------------|
G|------------------------|------------------------|
D|-----------------*-*-*--|------------------------|
A|-------------5---4-4-4--|---------4-4-4----------|
E|-2p0-2p0-2p0-3---2-2-2--|-2p0-2p0-2-2-2----------|




Key:
| /   slide up
| \   slide down
| *   palm muted notes, either above or below measure
| h   hammer-on
| p   pull-off
| ~   vibrato
| N   natural harmonic
| tr  trill, or alternating hammer-ons and pull offs as needed
| ()  ghost note - note hit lightly, occasionally used to show notes 
      that ring into the next measure



Suggest correction
Give kudos to tab author, rate the tab!
1 2 3 4 5
comments
print report bad tab
guest
You may want to rate the tab now too:
select rating
Wanna post a correction for this tab? Suggest correction