Oops, an error
Loading. Please wait.

My Apocalypse Bass Tab

version 1
version 1

Whole song

11,393 views 3 this week
1 commentread comment
1 2 3 4 5
accurate
x 8
add to favorites
launch autoscroll
font size
0
reset
guitar tuner
Autoscroll
slow
fast
+/-
esc
set tempo
stop
Help us to improve Ultimate-Guitar.com Take our survey!
×
Author
Difficulty
Fender6 884
intermediate
My Apocalypse
Metallica
Death Magnetic
Bass Tab
Tuning: Standard (E, A, D, G)

0:01                                   0:10                 (x4) 0:31
|--------------------------------------|-----------------------|---------|
|-*----------------------------------*-|-*-------------------*-|-*-------|
|-*-5h7-----5h7-----5h7---5\4-5\4-5\4*-|-*-5h7---------------*-|-*-5h7---|
|--------------------------------------|------0-0-0-0--0-0-0---|-------0-|

-------------------------------------------------------------------------|
-------------------------------------------------------------------------|
-----------------------5h7-------------------------5h7-------------------|
-0-0-0-0-0-0-0-0-0-0-0-----0-0-0-0-0-0-0-0-0-0-0-0-----0-0-0-0-0-0-0-0-0-|

                 (x4) 0:51                    (x3) 0:58
---------------------|---------------------------|----------------------|
-------------------*-|-*-----------------------*-|----------------------|
-------5\4-5\4-5\4-*-|-*---------------2--4-5--*-|----------------------|
-0-0-0---------------|--3-3-3-3-3-3-3-3-------0--|--3-3-3-3-3-3-3-3-3-3-|

-------------------------------------------------------------------------|
-------------------------------------------------------------------------|
----------------------------------5-4-0-5-4-0-5-4-7-6-0-7-6-0-7-6--7-7-7-|
3-3-3-3-3-3--3--3---3--3---3--3------------------------------------------|

                        1:09
-----------------------|-------------------------------------------------|
-----------------------|-*-----------------------------------------------|
-7-7-7-7-7-------------|-*-5h7-------------------------5h7---------------|
-----------3--3--3--3--|-------0-0-0-0-0-0-0-0-0-0-0-0-----0-0-0-0-0-0-0-|

                                                  (x4) 1:28
-----------------------------------------------------|-------------------|
---------------------------------------------------*-|-*-----------------|
-----------5h7-------------------------5\4-5\4-5\4-*-|-*-----------------|
-0-0-0-0-0-----0-0-0-0-0-0-0-0-0-0-0-0---------------|---3-3-3-3-3-3-3-3-|

          (x3) 1:35
-------------|----------------------------------------------------------|
-----------*-|----------------------------------------------------------|
-2---4-5---*-|------------------------------------------------------5-4-|
---------0---|--3-3-3-3-3-3-3-3-3-3-3-3-3-3-3-3--3--3---3--3---3--3-----|

                                                          1:47
---------------------------------------------------------|--------------|
---------------------------------------------------------|--------------|
0-5-4-0-5-4-7-6-0-7-6-0-7-6--7-7-7-7-7-7-7-7-------------|--5h7---------|
---------------------------------------------3--3--3--3--|------0-0-0-0-|

------------------------------------------------------------------------|
------------------------------------------------------------------------|
----------------5h7-------------------------5h7-------------------------|
0-0-0-0-0-0-0-0-----0-0-0-0-0-0-0-0-0-0-0-0-----0-0-0-0-0-0-0-0-0-0-0-0-|

                       1:56              (x4) 2:00
----------------------|---------------------|----------------------------|
----------------------|-*-----------------*-|-*--------------------------|
5\4-5\4-5\4-----------|-*-----7--------5--*-|-*-5h7-----------------7h5--|
------------0---------|---7-9---9--5-7---7--|------0-0-0-0-0-0-0-0-----0-|

                                              (x4) 2:21            (x3)
-------------------------------------------------|---------------------|
-----------------------------------------------*-|-*-----------------*-|
-----------5h7---------------------7--------5--*-|-*-----7--------5--*-|
-0-0-0-0-0-----0-0-0-0-0-0-0-0-7-9---9--5-7---7--|---7-9---9--5-7---7--|

2:25
|----------------------------|
|-*--------------------------|
|-*-5h7-----------------7h5--|
|------0-0-0-0-0-0-0-0-----0-|

                                              (x3) 2:40
-------------------------------------------------|----------------------|
-----------------------------------------------*-|----------------------|
-----------5h7---------------------7--------5--*-|--5h7-----------------|
-0-0-0-0-0-----0-0-0-0-0-0-0-0-7-9---9--5-7---7--|------0-0-0-0-0-0-0-0-|

                                                        2:46
-------------------------------------------------------|----------------|
-------------------------------------------------------|-*--------------|
7h5-------------5h7------------------------------------|-*--------------|
----0-0-0-0-0-0-----5-5-5-5-5-5-5-5-5-5-5-5-5-5-5-5-0--|--0---0-0-0-0-0-|

  (x6) 2:52                     2:53              (x9) 3:05
-----|-------------------------|---------------------|-------------------|
---*-|-------------------------|-*-----------------*-|-*-----------------|
---*-|-------------------------|-*-----------------*-|-*-5h7-------------|
--0--|--0---0-0-0-0-0---3-(3)--|--0---0-0-0-0-0---0--|-------0-0-0-0-0-0-|

                   (x4) 3:15             (x8) 3:3:24
----------------------|---------------------|---------------------------|
--------------------*-|-*-----------------*-|-*-------------------------|
-----5h7-5--4--5--4-*-|-*-----------------*-|-*-5h7-----------------5h7-|
-0-0------------------|--0---0-0-0-0-0---0--|-------0-0-0-0-0-0-0-0-----|

          (x4) 3:33             (x4) 3:39 (x16) 3:44
-------------|---------------------|----------|----------------------|
-----------*-|-*-----------------*-|-*------*-|----------------------|
5--4--5--4-*-|-*-----7--------7--*-|-*--3h5-*-|----------------------|
-------------|---7-9---9--5-7---7--|--0-------|--4-3-2-0-2-3--4-3-2--|

3:46
|---------|
|-*-------|
|-*-5h7---|
|-------0-|

-------------------------------------------------------------------------|
-------------------------------------------------------------------------|
-----------------------5h7-------------------------5h7-------------------|
-0-0-0-0-0-0-0-0-0-0-0-----0-0-0-0-0-0-0-0-0-0-0-0-----0-0-0-0-0-0-0-0-0-|

                 (x4) 4:04                    (x3) 4:12
---------------------|---------------------------|----------------------|
-------------------*-|-*-----------------------*-|----------------------|
-------5\4-5\4-5\4-*-|-*---------------2--4-5--*-|----------------------|
-0-0-0---------------|--3-3-3-3-3-3-3-3-------0--|--3-3-3-3-3-3-3-3-3-3-|

-------------------------------------------------------------------------|
-------------------------------------------------------------------------|
----------------------------------5-4-0-5-4-0-5-4-7-6-0-7-6-0-7-6--7-7-7-|
3-3-3-3-3-3--3--3---3--3---3--3------------------------------------------|

                        4:22
-----------------------|------------------------------------------------|
-----------------------|-*----------------------------------------------|
-7-7-7-7-7-------------|-*----------------------------------------------|
-----------3--3--3--3--|---0-0-0-0-0-0-0-0-0-0-0-0-0-0-0-0--4-3-2-0-2-3-|

     (x4) 4:40        4:47
--------|------------|--------------------------------------|
------*-|-*--------*-|--------------------------------------|
------*-|-*--------*-|--------------------------------------|
-4-3-2--|---3-3-3-3--|--3-(3)----------------------------3--|

NOTES:

At 3:39, you can barely hear the bass over the guitar and the drums.

At 4:40, just keep on repeating those notes for seven seconds till
the last notes sustains.

Have fun learning an excellent MetallicA song!
Suggest correction new What's this?
You can suggest a correction to this tab. Community and Mods will review your correction and vote to approve or reject it.
comments
print report bad tab
1 comment total.
+1 reply
toxgoboom 101 wrote on September 24 2008, 09:54 am

Robert isn't afraid to use the low B string, and this tab doesn't reflect that.

guest
You may want to rate the tab now too:
select rating
Please do not post tabs as comments. Select "correction" instead!