Oops, an error
Loading. Please wait.

My Apocalypse Tab

version 2
version 2

Intro

Solo

Whole song

22,805 views 6 this week
3 commentsread comments
1 2 3 4 5
accurate
x 7
add to favorites
launch autoscroll
font size
0
reset
how to read this tab
guitar tuner
Tab Pro tools
  • play this tab
  • loop segment
  • change instrument
  • show fretboard
  • metronome
Autoscroll
slow
fast
+/-
esc
set tempo
stop
Contributor
Metallica – My Apocalypse
Standard Tuning (eGBDAE)
Another wicked song from Death Magnetic!
			
		                                  
-------------------------------------------------|-----------------|
-------------------------------------------------|-----------------|
-------------------------------------------------|-7\6---7\6---7\6-|
-------------------------------------------------|-----------------|
-5h7-------------5h7-------------5h7-------------|-5\4---5\4---5\4-|
-0---0-0-0-0-0-0-0---0-0-0-0-0-0-0---0-0-0-0-0-0-|-----0-----0-----|

-----------------------------------------------------------------| x2
-----------------------------------------------------------------|
-------------------------------------------------7\6---7\6---7\6-|
-----------------------------------------------------------------|
-5h7-------------5h7-------------5h7-------------5\4---5\4---5\4-|
-0---0-000—0-0-0-0---0-000-0-0-0-0---0-000—0-0-0-----0-----0-----|

----------------------------------------------------------------| x2
----------------------------------------------------------------|
------------------------------------------------7\6---7\6---7\6-|
-3/5------------3/5------------3/5------------------------------|
-5/7------------5/7------------5/7--------------5\4---5\4---5\4-|
-----0-0----0-0-----0-0----0-0-----0-0------0-0-----0-----0-----|

Claustrophobic…
-----------------------------------------------------------|
-----------------------------------------------------------|
-------------------------------------------7\6---7\6---7\6-|
-5-------------5-------------5-----------------------------|
-7-------------7-------------7-------------5\4---5\4---5\4-|
---0-000—0-0-0---0-000-0-0-0---0-000—0-0-0-----0-----0-----|

Fear thy name…
------------------------| 
------------------------|
--------------------4-7-|
-4--------------5-5-4-7-|
-4--------------5-5-2-5-|
-2--2-222-2-2-2-3-3-----|

-----------------------------|
-----------------------------|
-----------------------------|
-4---------------------------|
-4---------------------------|
-2-2-222-222-222-222-222-222-|

So we cross…
---------------------------------------------------------------|
---------------------------------------------------------------|
-------------------------------7\6---7\6---7\6-9\8---9\8---9\8-|
-5\--------5\--------5\----------------------------------------|
-7\--------7\--------7\--------5\4---5\4---5\4-7\6---7\6---7\6-|
-----0---0-----0---0-----0---0-----0-----0---------0-----0-----|

Suffer onto my apocalypse!
--------------------------|
--------------------------|
------------------8-8-8-8-|
-7\6-7\6-7\6-7\6--8-8-8-8-|
-5\4-5\4-5\4-5\4--6-6-6-6-|
--------------------------|

Deadly vision…
-----------------------------------------------------------|
-----------------------------------------------------------|
-------------------------------------------7\6---7\6---7\6-|
-5-------------5-------------5-----------------------------|
-7-------------7-------------7-------------5\4---5\4---5\4-|
---0-000—0-0-0---0-000-0-0-0---0-000—0-0-0-----0-----0-----|

Fear thy name…
------------------------| 
------------------------|
--------------------4-7-|
-4--------------5-5-4-7-|
-4--------------5-5-2-5-|
-2--2-222-2-2-2-3-3-----|

-----------------------------|
-----------------------------|
-----------------------------|
-4---------------------------|
-4---------------------------|
-2-2-222-222-222-222-222-222-|

So we cross…
---------------------------------------------------------------|
---------------------------------------------------------------|
-------------------------------7\6---7\6---7\6-9\8---9\8---9\8-|
-5\--------5\--------5\----------------------------------------|
-7\--------7\--------7\--------5\4---5\4---5\4-7\6---7\6---7\6-|
-----0---0-----0---0-----0---0-----0-----0---------0-----0-----|

Suffer onto my apocalypse!
--------------------------|
--------------------------|
------------------8-8-8-8-|
-7\6-7\6-7\6-7\6--8-8-8-8-|
-5\4-5\4-5\4-5\4--6-6-6-6-|
--------------------------|

-----------------------------------------------------------|
-----------------------------------------------------------|
-------------------------------------------7\6---7\6---7\6-|
-5-------------5-------------5-----------------------------|
-7-------------7-------------7-------------5\4---5\4---5\4-|
---0-000—0-0-0---0-000-0-0-0---0-000—0-0-0-----0-----0-----|

-----------------| x8
-----------------|
---5-4-----4-----|
-2-----3-4---4-3-|
-----------------|
-----------------|

Crushing metal…
--------------------------------------------------------------------|
--------------------------------------------------------------------|
-9------------9\7--------------7/9--------------------5-4-----4-----|
-9------------9\7--------------7/9------------------2-----3-4---4-3-|
-7------------7\5--------------5/7----------------------------------|
---000000-0-0-----0-000000-0-0-----0-000000-0-0-0-0-----------------|

-----------------| x3
-----------------|
---5-4-----4-----|
-2-----3-4---4-3-|
-----------------|
-----------------|

Spit it out!
-----|
-----|
--9--|
--9--|
--7--|
-----|

Rhythm under solo…
-------------------------------------------------------------------| x3
-------------------------------------------------------------------|
-9------------9\7------------------------------------5-4-----4-----|
-9------------9\7-----5/7-----5/7-2----------------2-----3-4---4-3-|
-7------------7\5-----5/7-----5/7-2--------------------------------|
---000000-0-0-----0-0-3/5-0-0-3/5-0-000000-0-0-0-0-----------------|

--------------------------------------------------------------------|
--------------------------------------------------------------------|
-9------------9\7---------------------------------------------------|
-9------------9\7-----5/7-----9-8-7------------7-6-5------------5-4-|
-7------------7\5-----5/7-----9-8-7------------7-6-5------------5-4-|
---000000-0-0-----0-0-3/5-0-0-7-6-5-555555-5-5-5-4-3-333333-3-3-3-2-|

------------| x 6
------------|
------------|
------------|
------------|
-0-0000-0-0-|

---------------------|
---------------------|
---------------------|
---------3-------3-3-|
---------3-------3-3-|
-1-111-1-1-1-111-1-1-|

Guitar 1
---------------------------------------------| x2
---------------------------------------------|
---------------------------------------------|
---------------------------------------------|
---2---2-3-5-3-2-----2-----2---2-3-5-3-------|
-0---0-------------0-----0---0---------1-----|
Guitar 2
---------------------------------------------| x2
---------------------------------------------|
------------7-------------------------7------|
---9---9-10---10-9-----9-----9---9-10---10---|
-7---7---------------7-----7---7-----------8-|
---------------------------------------------|

What makes me drift…
------------------------------------|
------------------------------------|
-9------------9\7-------------------|
-9------------9\7-----5/7-----5/7-2-|
-7------------7\5-----5/7-----5/7-2-|
---000000-0-0-----0-0-3/5-0-0-3/5-0-|

------------------------------------| x2
------------------------------------|
--------------9\7-------------------|
-2------------9\7-----5/7-----5/7-2-|
-2------------7\5-----5/7-----5/7-2-|
-0-000000-0-0-----0-0-3/5-0-0-3/5-0-|

----------------------------------|
----------------------------------|
--------------9\7-----------------|
-2------------9\7-----5/7-----5/7-|
-2------------7\5-----5/7-----5/7-|
-0-000000-0-0-----0-0-3/5-0-0-3/5-|

Meeee…
-----------------| x4
-----------------|
---5-4-----4-----|
-2-----3-4---4-3-|
-----------------|
-----------------|

---------------------------------------------------------------------|
---------------------------------------------------------------------|
---8-7-----7-------8-7-----7-------7-------7-------8--------8--------|
-5-----6-7---7-6-5-----6-7---7-6-5---9-8-7---9-8-7---10-9-8---10-9-8-|
---------------------------------------------------------------------|
---------------------------------------------------------------------|

-------------------|
-------------------|
-------------------|
-5-4-3-2-3-4-5-4-3-|
-5-4-3-2-3-4-5-4-3-|
-3-2-1-0-1-2-3-2-1-|

Claustrophobic…
-----------------------------------------------------------|
-----------------------------------------------------------|
-------------------------------------------7\6---7\6---7\6-|
-5-------------5-------------5-----------------------------|
-7-------------7-------------7-------------5\4---5\4---5\4-|
---0-000—0-0-0---0-000-0-0-0---0-000—0-0-0-----0-----0-----|

Fear thy name…
------------------------| 
------------------------|
--------------------4-7-|
-4--------------5-5-4-7-|
-4--------------5-5-2-5-|
-2--2-222-2-2-2-3-3-----|

-----------------------------|
-----------------------------|
-----------------------------|
-4---------------------------|
-4---------------------------|
-2-2-222-222-222-222-222-222-|

So we cross…
---------------------------------------------------------------|
---------------------------------------------------------------|
-------------------------------7\6---7\6---7\6-9\8---9\8---9\8-|
-5\--------5\--------5\----------------------------------------|
-7\--------7\--------7\--------5\4---5\4---5\4-7\6---7\6---7\6-|
-----0---0-----0---0-----0---0-----0-----0---------0-----0-----|

Suffer onto my apocalypse!
--------------------------|
--------------------------|
------------------8-8-8-8-|
-7\6-7\6-7\6-7\6--8-8-8-8-|
-5\4-5\4-5\4-5\4--6-6-6-6-|
--------------------------|

Tyrant awaken…
-----------------------------------------------------|
-----------------------------------------------------|
-----------------------------------------------------|
---------------------------------5-4-3-2-3-4-5-4-3-2-|
---------------------------------5-4-3-2-3-4-5-4-3-2-|
00000000000000000000000000000000-3-2-1-0-1-2-3-2-1-0-|

Strum wildly for ending, then play it sliding out
-----|
-----|
--9--|
--9--|
--7--|
--0--|

Any questions, e-mail matthewmessina@hotmail.com
comments
print report bad tab
3 comments total.
0 reply
Feltmacer wrote on August 30 2008, 05:45 pm

I haven't played all of it yet, but it sounds about right for how new it is. Good work!

-1 reply
Callo wrote on August 31 2008, 07:47 am

very well done, it all seems in check to me, and you got it out fast

0 reply
Got Metal? wrote on September 2 2008, 11:55 pm

Really good job dude and out in great time


........but i may be wrong but i think they said they switched to drop d tuning for this album?????

I want to post or [tab]
guest
You may want to rate the tab now too:
select rating
Please do not post tabs as comments. Select "correction" instead!