Oops, an error
Loading. Please wait.
We have an official My Friend Of Misery tab made by UG professional guitarists. Check out the tab »
×
26,145 views 30 this week
3 commentsread comments
1 2 3 4 5
x 10
add to favorites
×
Save as Personal and add changes to this tab that will be seen only by you. Learn more ›
×
You can save this tab as Personal to edit and correct it or add notes. All changes will be seen only by you. Learn more »
launch autoscroll
font size
0
reset
guitar tuner
backing track
0:00
0:00
edit
Autoscroll
slow
fast
+/-
esc
set tempo
stop
My Friend Of Misery - Bass Solo 
Metallica

Uses Pick
*Let ALL notes Ring*

(Play x4)
G|--10----10-----10-14------12----10-----9----9----9-12---10----9----|
D|----12----12---------12-----12----12----10---10------10---10---10--|
A|0-----0------0----------0-----0-----0-----0----0-------0----0----0-|
E|-------------------------------------------------------------------|

(Play x3)
G|------7---4-----5---------5-----5----------|
D|----5-------5--------7------7-----7--------|
A|--0-----0-----0--------0------0------------|
E|-------------------------------------------|

(Play x1)
G|------7----4-----5------7-----9------------|
D|----5--------5------7-----9-----10---------|
A|--0-----0------0------0-----0--------------|
E|-------------------------------------------|

(Play x1)
G|---10----10-----10-14------12----10-----9----9----9-12-12---10-10----9-9----|
D|-----12----12---------12-----12----12----10---10---------10-------10----10--|
A|-0-----0------0----------0-----0-----0-----0----0---------------------------|
E|----------------------------------------------------------------------------|

(continued)
G|-10-10----9-9----|
D|-------10----10--|
A|-----------------|
E|-----------------|


(fast bit)
G|---10----10-----14141414--12121212---9-9-9-9-9-9-9-9--12121212--10101010-|
D|-----12----12---12121212--12121212--1010101010101010--10101010--10101010-|
A|-0-----0-----0-----------------------------------------------------------|
E|-------------------------------------------------------------------------|

(play x3)
G|-1010101010101010-----14141414--12121212---9-9-9-9-9-9-9-9--12121212--10101010-|
D|-1212121212121212-----12121212--12121212--1010101010101010--10101010--10101010-|
A|-------------------------------------------------------------------------------|
E|-------------------------------------------------------------------------------|

(play x3)
G|-7-7-7-7---4-4-4-4---5-5-5-5-5---|
D|-5-5-5-5---5-5-5-5---7-7-7-7-7---|
A|---------------------------------|
E|---------------------------------|

G|-----7---4-----5-----------5\--|---------|
D|---5-------5------7-----7------|---------|
A|-0-----0-----0-------7---------|-0-------|
E|-------------------------------|---------|

            
            
Suggest correction
Creating personal tab
Creating personal tab
You can edit any tab online and save it as your Personal.

You can edit, replace or remove any tab part or add personal notes – all changes will be seen only by you.

Personal tabs can be accessed anytime from any device, even offline.
Learn more »
comments
print report bad tab
3 comments total.
-2 reply
slayerofangels 10 Jul 21, 2007 02:36 AM

the intro doesnt sound quite right to me

-1 reply
edgeyyz 30 Dec 05, 2008 03:03 PM

where is this from, i know it's not the album version

0 reply
angamah 10 Feb 06, 2010 10:33 AM

it' the solo and he normally played it only live!!!

guest
Wanna post a correction for this tab? Suggest correction