Oops, an error
Loading. Please wait.

My Friend Of Misery Tab

version 1
version 1
59,106 views 30 this week
16 commentsread comments
1 2 3 4 5
worth learning
x 19
add to favorites
launch autoscroll
font size
0
reset
how to read this tab
guitar tuner
Tab Pro tools
  • play this tab
  • loop segment
  • change instrument
  • show fretboard
  • metronome
×
Best way to learn
"My Friend Of Misery"
Autoscroll
slow
fast
+/-
esc
set tempo
stop
You have to listen to the song a couple of times to get the right rhythm for
this. This is my first tab I don't know the whole song but it will help you on
the way to learn it, they only have bass tabs for this page.
IF YOU KNOW MORE PLEASE FEEL FREE TO TAB IT PLEASE!, I WANT TO LEARN IT ALL 

Intro.....

6|--------------------------------------------|
5|--------------------------------------------|
4|--------------------------------------------|
3|-----3--------3--------7-----5-----3--------|
2|-------5--------5--5-5---5-5---5-5----------|
1|--0--------0--------------------------------|


6|--------------------------------------------|
5|--------------------------------------------|
4|--------------------------------------------|
3|-----2-------2--------5-----3-----2---------|
2|-------3-------3--3-3---3-3---3-3-----------|
1|--0-------0---------------------------------|

Play this several times

2nd Guitar in intro (played distorted).....

6|----------------------------------------------|
5|----------------------------------------------|
4|----------------------------------------------|
3|---3---3---3---3----------2---2---2---2-slide7|
2|-----5---0---5---0----------3---0---3---------|
1|----------------------------------------------|

Verse.....

6|----------------------------------------------|
5|----------------------------------------------|
4|----------------------------------------------|
3|---3---3---3---3----------2---2---2---2-slide7|
2|-----5---0---5---0----------3---0---3---------|
1|----------------------------------------------|

You just stood there screamin........

That's it guys that's all I know ... sorry
comments
print report bad tab
16 comments total. Showing first comments.
0 reply
schizo bat wrote on August 15 2003, 12:00 am

this tab is awesome with a few errors but thats ok

0 reply
ghislain wrote on May 20 2004, 12:00 am

u got the second guitar wrong dude. it should be
d--3--3--3--3----\2----2--2--2--2--5/7
a---5--0--5--0-----------3--0--3-------
in the middle, you hold the last note on the 3rd fret of the
d string,then slide to the 2nd fret and hold it.
the last note is a quick slide from the 5th to the 7th fret
wich you hold until the riff repeats.listen to the cd...
i also read the book
anyway, good try man ;-)

0 reply
JamesRoot wrote on August 16 2005, 12:00 am

hhah UGstarnger 3 months 2 learn that solo.... good tab

I want to post or [tab]
guest
You may want to rate the tab now too:
select rating
Please do not post tabs as comments. Select "correction" instead!