Oops, an error
Loading. Please wait.

My Friend Of Misery Tab

version 3
version 3
94,738 views 123 this week
10 commentsread comments
1 2 3 4 5
excellent!
x 32
add to favorites
launch autoscroll
font size
0
reset
how to read this tab
guitar tuner
Autoscroll
slow
fast
+/-
esc
set tempo
stop
Help us to improve Ultimate-Guitar.com Take our survey!
×
A5
x 0 2 2 x x  F#5
2 4 4 x x x  E5
0 2 2 x x x  F5
1 3 3 x x x  
G5
3 5 5 x x x  

Gtr I (E A D G B E) - 'James Hetfield - Rhythm w/dist'
Gtr II (E A D G B E) - 'Kirk Hammett - Rhythm w/dist'
Gtr III (E A D G B E) - 'James Hetfield - Steel String Acoustic'
Gtr IV (E A D G B E) - 'James Hetfield - Lead w/dist'
Gtr V (E A D G B E) - 'Kirk Hammett - Lead w/dist'
Gtr VI (E A D G B E) - 'Kirk Hammett - Clean Electric'


[Intro]

Q=120
4/4
Gtrs I, II

   Wx7          H    Q  E E   W          +W           W          +H     +Q.   E
e|------------|-------------|----------|------------|----------|----------------|
B|------------|-------------|----------|------------|----------|----------------|
G|------------|-----------2-|-2--------|-(2)--------|-2--------|-(2)----(2)---2-|
D|------------|-----------3-|-3--------|-(3)--------|-2--------|-(2)----(2)---3-|
A|------------|-----------0-|-0--------|-(0)--------|-0--------|-(0)----(0)---0-|
E|------------|-------------|----------|------------|----------|----------------|
                           |-Rhy Fig 1                           end Rhy Fig 1-|

 w/Rhy Fig 1 x3
   Gtr I
   W          +W           W          +W
e|----------|------------|----------|----------------|
B|----------|------------|----------|----------------|
G|-2--------|-(2)--------|-2--------|-(2)------------|
D|-3--------|-(3)--------|-2--------|-(2)------------|
A|-0--------|-(0)--------|-0--------|-(0)------------|
E|----------|------------|----------|----------------|


         PM                            PM
   +E  E E E H      +W           +E  E E E H      +W
e|----------------|------------|----------------|----------------|
B|----------------|------------|----------------|----------------|
G|-(2)------------|------------|----------------|----------------|
D|-(2)-3---3------|------------|-----2---2------|----------------|
A|-(0)---5---0----|-(0)--------|-(0)---3---0----|-(0)------------|
E|----------------|------------|----------------|----------------|


         PM                            PM
   +E  E E E H      +W           +E  E E E H      +W
e|----------------|------------|----------------|----------------|
B|----------------|------------|----------------|----------------|
G|----------------|------------|----------------|----------------|
D|-----3---3------|------------|-----2---2------|----------------|
A|-(0)---5---0----|-(0)--------|-(0)---3---0----|-(0)------------|
E|----------------|------------|----------------|----------------|


 w/Rhy Fig 1 x2
           PM               PM                PM            PM     ~~
     +E  E E E Q.   E    E  E H.        +E  E E E Q.   E    E  E a H.
e|-------------------|---------------|------------------|---------------------|
B|o------------------|---------------|------------------|---------------------|
G|-------------------|---------------|------------------|---------------------|
D|------3---3------3-|-----3---------|-----2---2------2-|-----2-5s7-----------|
A|o-(0)---5---0------|--5----0-------|-(0)---3---0------|--3------------------|
E|-------------------|---------------|------------------|---------------------|
                     |-Rhy Fig 2

         PM               PM                PM            PM     ~~
   +E  E E E Q.   E    E  E H.        +E  E E E Q.   E    E  E a H.
e|------------------|---------------|------------------|---------------||
B|------------------|---------------|------------------|---------------||
G|------------------|---------------|------------------|---------------||
D|-(7)-3---3------3-|-----3---------|-----2---2------2-|-----2-5s7-----||
A|-------5---0------|--5----0-------|-(0)---3---0------|--3------------||
E|------------------|---------------|------------------|---------------||
                                                        end Rhy Fig 2-|

[Verse 1,2]
                      Gtrs I, II
         PM            PM             PM   PM            PM    ~
   +E  E  E E  Q.   E   E E H    E E   E E  E E  Q.   E   E E a H    E E
e|--------------------|--------------|------------------|-----------------|
B|--------------------|--------------|------------------|-----------------|
G|--------------------|--------------|------------------|-----------------|
D|-(7)-3----3-------3-|---3--------5-|---2----2-------2-|---2-5s7----7-7--|
A|--------5----0------|-5---0----3---|------3----0------|-3---------------|
E|--------------------|--------------|------------------|-----------------|
 |-Rhy Fig 3                                                end Rhy Fig 3-|
 |        PM
 | +E  E  E E  Q.   E   W              W                  W
e|--------------------|--------------|------------------|-----------------|
B|--------------------|--------------|------------------|-----------------|
G|-(2)----------------|--------------|------------------|-----------------|
D|-(2)-3----3-------3-|--------------|------------------|-----------------|
A|-(0)----5----0------|--------------|------------------|-----------------|
E|--------------------|--------------|------------------|-----------------|
 |
 | Gtr VI play on repeat only
 |  E  Q.     +H        W              E Q.     +H        W
e|--------------------|--------------|------------------|-----------------|
B|--------------------|--------------|------------------|-----------------|
G|--2-----------------|--------------|-2----------------|-----------------|
D|-----3------(3)-----|--------------|---2------(2)-----|-----------------|
A|--------------------|--------------|------------------|-----------------|
E|--------------------|--------------|------------------|-----------------|
 |-Riff A                                                      end Riff A-|

w/Riff A x2 on repeat
  Gtrs I, II
       PM            PM             PM   PM            PM    ~
  E E  E E  Q.   E   E E H    E E   E E  E E  Q.   E   E E a H    E E
e|------------------|--------------|------------------|-----------------|
B|------------------|--------------|------------------|-----------------|
G|------------------|--------------|------------------|-----------------|
D|---3----3-------3-|---3--------5-|---2----2-------2-|---2-5s7----7-7--|
A|------5----0------|-5---0----3---|------3----0------|-3---------------|
E|------------------|--------------|------------------|-----------------|
 |-Rhy Fig 4                                              end Rhy Fig 4-|

Rhy Fig 4

 w/Rhy Fig 4
   Gtr III
   E E E E E  E E E   E E E E E E E E   E E E E E  E E E   E E   E E E E E E
e|------------------|-----------------|------------------|--------------------|
B|------------------|-----------------|------------------|--------------------|
G|---2-----2------2-|-----2-----2---2-|---2-----2------2-|-------2-----2---2--|
D|-----3------3-----|-3-----3-----3---|-----2------2-----|-2-------2-----2----|
A|-------5------5---|---5-----5-------|-------3------3---|---3-------3--------|
E|------------------|-----------------|------------------|--------------------|


  A5
  Gtr II
  E E Q   Q    Q     E E Q   H
  |            |     |
  /            /     /

   Gtr I
   PM|   PM|          PM|
   E E E E E E  E E   E E E E E E +Q
e|------------------|-------------------||
B|------------------|-------------------||
G|------------------|-------------------||
D|-----5------------|-----5---5---------||
A|-0-3-------5----7-|-0-3-----5-7-(7)\--||
E|-------0-3---/5---|-------0-----------||


[Chorus]

  $
  Gtrs I, II
   PM-|              PM               PM|             PM   
   E  E E E E E Q    E E E E E E Q    E E E E E E Q    E E E E E Q  E 

e|------------------|----------------|----------------|----------------|
B|------------------|----------------|----------------|----------------|
G|------------------|---2-2---2-4-4--|----------------|---2-2-3-4------|
D|---------------2--|---2-2---2-4-4--|-------------2--|---2-2-3-4-2--2-|
A|--4--4-0-2-3-4-2--|---0-0---0------|-4-4-0-2-3-4-2--|---0-0-1-2-2--2-|
E|--2--2---------0--|-0--------------|-2-2---------0--|-0---------0--0-|
 |-Rhy Fig 5                                             end Rhy Fig 5-|
 |
 | Gtr V on repeat only
 |  Q    Q   H
e|------------------|
B|------------------|
G|------------------|
D|-16\--------------|
A|------------------|
E|------------------|


   PM|              PM
   E E E E E E Q    E E E E E E Q
e|----------------|----------------|
B|----------------|----------------|
G|----------------|---2-2---2-4-4--|
D|-------------2--|---2-2---2-4-4--|
A|-4-4-0-2-3-4-2--|---0-0---0------|
E|-2-2---------0--|-0--------------|


                                                     1.
                                             To Coda
   PM|              PM                 PM--|    PM      PM--|    PM
   E E E E E E Q    E E E E E Q  E   E E E E Q  E E   E E E E Q  E E
e|----------------|----------------|----------------|------------------||
B|----------------|----------------|----------------|-----------------o||
G|----------------|---2-2-3-4------|----------------|--------------2---||
D|-------------2--|---2-2-3-4-2----|---------2------|---------2----3---||
A|-4-4-0-2-3-4-2--|---0-0-1-2-2--3-|-3-------2----3-|-3-------2----0--o||
E|-2-2---------0--|-0---------0--0-|-0-0-0-0-0--0-0-|-0-0-0-0-0--0-----||


[Breakdown]
   2.
   Gtrs I, II
     PM--|    PM
   E E E E Q  E E    W          +W           W
e|----------------||----------|------------|------|
B|----------------||----------|------------|------|
G|--------------2-||-2--------|-(2)--------|-2----|
D|---------2----3-||-2--------|-(2)--------|-2----|
A|-3-------2----0-||-0--------|-(0)--------|-0----|
E|-0-0-0-0-0--0---||----------|------------|------|


   +H..       E   W          +W            W           +W
e|--------------|----------|------------|------------|--------||
B|--------------|----------|------------|------------|--------||
G|-(2)--------2-|-2--------|-(2)--------|-(2)--------|-(2)----||
D|-(2)--------3-|-3--------|-(3)p=======|==2---------|-(2)----||
A|-(0)--------0-|-0--------|-(0)--------|-(0)--------|-(0)----||
E|--------------|----------|------------|------------|--------||


[Interlude]

   Gtr I
              <    <      <    <          <    <      <
                               ~
   w          q.   e +q   q    w          q.   e +q   q
e|----------|----------------|----------|----------------|
B|----------|-------------5--|----------|-5--------------|
G|----------|------5-(5)-----|----------|------7-(7)--5--|
D|----------|-7--------------|-7--------|----------------|
A|----------|----------------|----------|----------------|
E|----------|----------------|----------|----------------|


   <          <    <      <    <          <    <      <
   ~                           ~
   w          q.   e +q   q    w          q.   e +q   q
e|----------|----------------|----------|----------------|
B|----------|-------------5--|----------|-5--------------|
G|-7--------|------5-(5)-----|----------|------7-(7)--5--|
D|----------|-7--------------|-7--------|----------------|
A|----------|----------------|----------|----------------|
E|----------|----------------|----------|----------------|


   <           <            <       <    <           <            <       <
   ~                        ~~~~~~~      ~                        ~~~~~~~
   w           e      +q    e  +q   q    w           e      +q    e  +q   q
e|----------|--------------------------|----------|--------------------------|
B|----------|-10pb12r(10)--10-(10)--5--|----------|-10pb12r(10)--10-(10)-----|
G|-7--------|--------------------------|-5--------|-----------------------5--|
D|----------|--------------------------|----------|--------------------------|
A|----------|--------------------------|----------|--------------------------|
E|----------|--------------------------|----------|--------------------------|


     gtr vi
     q   e e e q   e      +e  e +e  e +h
e|----------------0----|-(0)-------------------|
B|o-----------3---3b5==|=(3)-3r(3)-------------|
G|----------2----------|-----------2-(2)-------|
D|------2h3------------|-----------------------|
A|o-0------------------|-----------------------|
E|---------------------|-----------------------|
 |
 |   gtrs iv, v
 |   e e e e e e e e       e  e  e  e  e  e e e
e|--5-5-5-5-5-5-5-5----|--5--5--5--5--5--5-5-5-|
B|o-6-6-6-6-6-6-6-6----|--6--6--6--6--6--6-6-6-|
G|---------------------|-----------------------|
D|---------------------|-----------------------|
A|o--------------------|-----------------------|
E|---------------------|-----------------------|
    e e e e e e e e       e  e  e  e  e  e e e


   q   e e e e e e   w                 3x
e|-----------------|-0-----------------||
B|-----------------|-1----------------o||
G|-----------0h2-2-|-------------------||
D|-----0h2-2-------|-------------------||
A|-0---------------|------------------o||
E|-----------------|-------------------||
 |
 | e e e e e e e e   e e e e e e e e   3x
e|-5-5-5-5-5-5-5-5-|-5-5-5-5-5-5-5-5---||
B|-5-5-5-5-5-5-5-5-|-5-5-5-5-5-5-5-5--o||
G|-----------------|-------------------||
D|-----------------|-------------------||
A|-----------------|------------------o||
E|-----------------|-------------------||
  e e e e e e e e   e e e e e e e e


   gtrs iv, v
     ~~~~
     h.            s  s  e        +q.       e  +q    e  e
e|-----------------------------|--------------------------|
B|-/10------------11p10-11b13==|=(11)------11-(11)r=11-10-|
G|-/10------------12p10-12b14==|=(12)------12-(12)r=10--9-|
D|-----------------------------|--------------------------|
A|-----------------------------|--------------------------|
E|-----------------------------|--------------------------|
 |
 | gtrs i, ii
 |        pm
 |   e  e e e q.         e
e|-----------------------------|
B|-----------------------------|
G|-----------------------------|w/rhy fig 2
D|------3---3------------3-----|
A|--------5---0----------------|
E|-----------------------------|


                                                  ~~
    s   s  q.      h         s  s  s s    s s s s q.   +e
e|------------------------|-----------------------------------|
B|-10h=11-10------10------|-10h11p10s8h==10p8s6h8p6----(6)\---|
G|--9h=12--9-------9------|--9h10p=9s7h===9p7s5h7p5----(5)\---|
D|------------------------|-----------------------------------|
A|------------------------|-----------------------------------|
E|------------------------|-----------------------------------|


     ~~~~
     h.            s  s  e        +q      s  s  e      +e   s  +s   +s   e.
e|-----------------------------|--------------------------------------------|
B|-/10------------11p10-11b13==|=(11)r---11p10-11b13==(11)-11r(11)-(11)-10--|
G|-/10------------12p10-12b14==|=(12)r---12p10-12b14==(12)-12r(12)-(12)-10--|
D|-----------------------------|--------------------------------------------|
A|-----------------------------|--------------------------------------------|
E|-----------------------------|--------------------------------------------|


           ~~~                                                 ~
    s   s  q.      s  s  s s  e s  s   s s e   s s s s s s s s q
e|-----------------------------------|------------------------------|
B|-10h=11-10------10h11p10s8-10-8h10p|=8s6-8---6h8p6s5-6p5s1h5-1----|
G|--9h=10--9-------9h10p=9s7--9-7h=9p|=7s5-7---5h7p5s4-5p4s2h4-2----|
D|-----------------------------------|------------------------------|
A|-----------------------------------|------------------------------|
E|-----------------------------------|------------------------------|

 w/rhy fig 3
   gtr iv
    s   s  s  s  e  s  s  s   s  e  s  s  s  s
e|-13p=10----10-13-13p10-----10-13-13p10----10-|
B|--------10-------------10--------------10----|
G|---------------------------------------------|
D|---------------------------------------------|
A|---------------------------------------------|
E|---------------------------------------------|
 |
 | gtr v
 |  s   s  s  s  e  s  s  s   s  e  s  s  s  s
e|-10p==5-----5-10-10p=5------5-10-10p=5-----5-|
B|---------6--------------6---------------6----|
G|---------------------------------------------|
D|---------------------------------------------|
A|---------------------------------------------|
E|---------------------------------------------|


    s  s  s  s  s  s  s  s  s  s  s  s  s  s  s  s
e|-13p10----10-13p10-13p10----10-13p10-13p10----10--|
B|-------10----------------10----------------10-----|
G|--------------------------------------------------|
D|--------------------------------------------------|
A|--------------------------------------------------|
E|--------------------------------------------------|
 |
 |  s  s  s  s  s  s  s  s  s  s  s  s  s  s  s  s
e|-10p=5-----5-10p=5-10p=5-----5-10p=5-10p=5-----5--|
B|--------6-----------------6-----------------6-----|
G|--------------------------------------------------|
D|--------------------------------------------------|
A|--------------------------------------------------|
E|--------------------------------------------------|

    s s  s s  e  s s  s  s  e  s s  s s
e|-12p8----8-12-12p8-----8-12-12p8----8-|
B|------10-----------10------------10---|
G|--------------------------------------|
D|--------------------------------------|
A|--------------------------------------|
E|--------------------------------------|
 |
 |  s s  s s  e  s s  s  s  e  s s  s s
e|--8p5----5--8--8p5-----5--8--8p5----5-|
B|-------5------------5-------------5---|
G|--------------------------------------|
D|--------------------------------------|
A|--------------------------------------|
E|--------------------------------------|


                                      ~~
    s s  s s    s s  s  s  s  s  s s  q
e|-12p8----8---12p8-----------------------|
B|------10----------10-10-10h11p10-8-10---|
G|----------------------------------------|
D|----------------------------------------|
A|----------------------------------------|
E|----------------------------------------|
 |
 |                                    ~~
 |  s s  s s    s s  s  s  s  s  s s  q
e|--8p5----8----8p5-----------------------|
B|-------5-----------5--5--5h=6p=5----5---|
G|---------------------------------7------|
D|----------------------------------------|
A|----------------------------------------|
E|----------------------------------------|

 w/rhy fig 4
    s  s  s  s  e  s  s  s   s  e  s  s  s  s
e|-13p10----13-10-13p10-----10-13-13p10----10-|
B|-------10-------------10--------------10----|
G|--------------------------------------------|
D|--------------------------------------------|
A|--------------------------------------------|
E|--------------------------------------------|
 |
 |  s  s  s  s  e  s  s  s   s  e  s  s  s  s
e|-10p=5-----5-10-10p=5------5-10-10p=5-----5-|
B|--------6--------------6---------------6----|
G|--------------------------------------------|
D|--------------------------------------------|
A|--------------------------------------------|
E|--------------------------------------------|


   s  s  s  s  s  s  s  s  s  s  s  s  e  e

e|-13p10----10-13p10-13p10----10-13p10-13-13/-|
B|-------10----------------10-----------------|
G|--------------------------------------------|
D|--------------------------------------------|
A|--------------------------------------------|
E|--------------------------------------------|
 |
 |  s  s  s  s  s  s  s  s  s  s  s  s  e  e
e|-10p=5-----5-10p=5-10p=5-----5-10p=5-10-10/-|
B|--------6-----------------6-----------------|
G|--------------------------------------------|
D|--------------------------------------------|
A|--------------------------------------------|
E|--------------------------------------------|


    w
    s  s  s  s  e  s  s  s   s  e  s  s  s  s
e|-20p17----17-20-20p17-----17-20-20p17----17-|
B|-------17-------------17--------------17----|
G|--------------------------------------------|
D|--------------------------------------------|
A|--------------------------------------------|
E|--------------------------------------------|
 |
 |  s  s  s  s  e  s  s  s   s  e  s  s  s  s
e|-17p12----12-17-17p12-----12-17-17p12----12-|
B|-------13-------------13--------------13----|
G|--------------------------------------------|
D|--------------------------------------------|
A|--------------------------------------------|
E|--------------------------------------------|


                                        a5
                                      gtr ii
   w                                    e e q   q    q     e e q   h
                                        |            |     |
                                        /            /     /

                                       gtr i
                         ~~~~~           pm|   pm|          pm|
    e  e    e      +e    q.        e     e e e e e e  e e   e e e e e e +q
e|-20s22---22b24==(22)r-22b24----------|------------------|---------------------||
B|-------------------------------------|------------------|---------------------||
G|-------------------------------------|------------------|---------------------||
D|-------------------------------------|-----5------------|-----5---5-----------||
A|-------------------------------------|-0-3-------5----7-|-0-3-----5-7-(7)\----||
E|-------------------------------------|-------0-3---/5---|-------0-------------||
 |
 |                       ~~~~~
 |  e  e    e       e    q.       +e     w                  w
e|-17s19---19s=====20---20-------(20)\-|------------------|---------------------||
B|-------------------------------------|------------------|---------------------||
G|-------------------------------------|------------------|---------------------||
D|-------------------------------------|------------------|---------------------||
A|-------------------------------------|------------------|---------------------||
E|-------------------------------------|------------------|---------------------||


[Solo]

 w/rhy fig 5 x2
   gtr v
    tp                     tp            ~~~
    w                     +h          s  e.    +e     s  s
e|---------------------|-----------------------------------|
B|-16b17===============|=(16)r-----------------------------|
G|-16b18===============|=(16)r-------16-14----(14)\-----14-|
D|---------------------|----------------------------/16----|
A|---------------------|-----------------------------------|
E|---------------------|-----------------------------------|

    ~~~~~                                                         ~~~~~~
    q       e  e     s  s  e  e  e    s     +s   e  s     +s   e  q.        +e
e|---------------------------------|----------------------------------------------|
B|---------------------------------|-----------------------------17b19=====(17)r\-|
G|-16b18---16-16b18-14----------14-|-16b18r(16)p14-16b18r(16)p14------------------|
D|---------------------16-14-16----|----------------------------------------------|
A|---------------------------------|----------------------------------------------|
E|---------------------------------|----------------------------------------------|

                                                                       \0.5/
                                                                  ~~
    q.           e        +q      q          q          +e   +e   q    q
e|-17b19.5======17b19.5==(17)r---17b19.5--|-17b19.5====(17)r(17)-14-----------|
B|----------------------------------------|---------------------------17------|
G|----------------------------------------|-----------------------------------|
D|----------------------------------------|-----------------------------------|
A|----------------------------------------|-----------------------------------|
E|----------------------------------------|-----------------------------------|


                                                                d.s. al coda
   \1.5/
                                        ~~~
                                               |---3----|
   q        q       q       q        s  e.    +e   e    e  q         q

e|---------------------------------|-------------------------------------------||
B|-17-------16b17---16b17---16b17--|---------------------------------14b14.5---||
G|----------16b18---16b18---16b18--|-14--------------------14b14.5---14b14.5---||
D|---------------------------------|----16----(16)-14---16---------------------||
A|---------------------------------|-------------------------------------------||
E|---------------------------------|-------------------------------------------||


[Outro]
   &
                  gtr v
                                   ~~~~~~~~~~~~~~~~~~~~~~~~~
   w                 e     e e     e +h         h       +e  q.
e|----------------||--------------------------|--------------------|
B|----------------||---------2b2.5------------|-------------5b7----|
G|----------------||-2b2.5---2b2.5------------|--------------------|
D|----------------||-------x-------4-(4)------|-4-------(4)--------|
A|----------------||--------------------------|--------------------|
E|----------------||--------------------------|--------------------|
 |
 | gtrs i, ii     gtr i
 |   pm--|    pm 
 | e e e e q  e e
e|----------------||
B|----------------||
G|----------------|| w/rhy fig 5 x4
D|---------2----2-||
A|-3-------2----2-||
E|-0-0-0-0-0--0-0-||


                             ~~~~~~~~~~~~~
   s   s s s e s s +s  s e   q       +h..            e
e|-----2-2---2---2-(2)-------------|----------------------|
B|-5b7-----5---5-------5-5b7-5b7===|=(5)r------------5b7==|
G|---------------------------------|----------------------|
D|---------------------------------|----------------------|
A|---------------------------------|----------------------|
E|---------------------------------|----------------------|

                                 ~
   +e  +s  s e   +s  s s   +s  e q
e|-----------------------------------|
B|-(5)r(5)p2-------------------------|
G|-----------4b6r(4)p2-4b6r(4)-2-----|
D|-------------------------------4---|
A|-----------------------------------|
E|-----------------------------------|

    ~~~
   +w                 e   e s s s s s s s s s s s s
e|------------------|-------------------------------|
B|------------------|-----2-----------2-5p4---------|
G|------------------|-4b6---4p2-----4-------2-----2-|
D|-(4)--------------|-----------4p2-----------4-4---|
A|------------------|-------------------------------|
E|------------------|-------------------------------|

   |-3-|
   s s s s s s s s s s s s s q
e|--------------------------------|
B|--------------------------------|
G|-5p4p2-----2h4p2---2h4p2---2----|
D|-------4-4-------4-------4------|
A|--------------------------------|
E|--------------------------------|


                            ~~
           |---3---|
   q       e      +s   +e   q   e  e        +e.    +s   e     +e   q      e   s  s
e|----------------------------------------|--------------------------------------14-|
B|---------------------------------17b19==|=(17)r==(17)-17b19r(17)-17b19-----/17----|
G|-16b18---14b16==(14)r(14)---------------|--------------------------------x--------|
D|--------------------------16---x--------|-----------------------------------------|
A|----------------------------------------|-----------------------------------------|
E|----------------------------------------|-----------------------------------------|


   |------6-------|  |------6-------|  |------6-------|  |---3----|
   s  s  s  s  s  s  s  s  s  s  s  s  s  s  s  s  s  s  s  s  t  t  s  s
e|-17p14----14-17p14----14-17p14----14-17p14-14-14-17p14----14----^x-14h17--|
B|-------14----------14----------14----------------------14----^x-----------|
G|--------------------------------------------------------------------------|
D|--------------------------------------------------------------------------|
A|--------------------------------------------------------------------------|
E|--------------------------------------------------------------------------|

           ~~~~~                                                                   ~~~~~
                                         |--3--|              |--3--|
   q       q       s  s  s  s  q         s  s  s  s  s  s  s  s  s  s  s  s  s  s  q
e|-17b20---17b19---17-14----14---------|-17p14----14--------------------------------------|
B|-----------------------17----17b19---|-------17----17-14-14-14h17p14--------------------|
G|-------------------------------------|-------------------------------16-14-14-16-16b18--|
D|-------------------------------------|--------------------------------------------------|
A|-------------------------------------|--------------------------------------------------|
E|-------------------------------------|--------------------------------------------------|


    s  s  s  s  s  s  s  t  t  s  s  s  s  e  +e
e|-------------------------------------------------|
B|----------14-16-14----------------14h16----------|
G|-16-14----14-16-14----14h16p14----14h16-14-(14)\-|
D|-------16----------16----------16----------------|
A|-------------------------------------------------|
E|-------------------------------------------------|

     e  s  s        +s    s  s  s  s  s s  s  +s  s  s  s
e|--------------------------------------------------------|
B|----------------------------------------14-(14)---16p14-|
G|-----14-16b16.5==(16)rp14-------16p14---14-(14)---16p14-|
D|-/16----------------------16p14-------x---------x-------|
A|--------------------------------------------------------|
E|--------------------------------------------------------|


    s  s  s  s  +s  s  s  s  s  s  s  s  e  +e
e|------------------------------------------------|
B|------------------x-----------------------------|
G|-16p14----14-(14)-x-16p14-16p14----14-----------|
D|-------16-----------------------16----16-(16)\--|
A|------------------------------------------------|
E|------------------------------------------------|


  gtr ii
|-rhy fig 6 (rhythm slashes)                        end rhy fig 6-|
  f#5                    e5f5    f#5                 e   g5
  e    e q      q        e e     e   e   q       e   e   q
  |    |                 | |     |   |               |   |
  /    /                 / /     /   /               o   /

   gtr v
   ~~~~
   q      e s s +s  s s s e s s   s s s s s s s s s s s s s s s s
e|------------------------------|----------------------------------|
B|------------------------------|----------------------------------|
G|-4b6====4-4-4-(4)-4-4-4-4-4-4-|-4-4-4-4-4-4-4-4-4-4-4-4-4-4-4-4r=|
D|------------------------------|----------------------------------|
A|------------------------------|----------------------------------|
E|------------------------------|----------------------------------|
 |
 | gtr i
 |                                                    pm
 | e    e q      e    e   e e     e   e   q       e   e   q
e|------------------------------|----------------------------------|
B|------------------------------|----------------------------------|
G|------------------------------|----------------------------------|
D|-4----4--------x----x---2-3---|-4---4-----------x-------5--------|
A|-4----4--------x----x---2-3---|-4---4-----------x-------5--------|
E|-2----2--------x----x---0-1---|-2---2-----------x---0---3--------|
 |-rhy fig 7                                         end rhy fig 7-|

 w/rhy fig 6 x3 and rhy fig 7 x3 (w/variations)
                                  ~~~~~~~~~
   +e    e  e  e  e       +s   s  q
e|----------------------------------------|
B|-------------------------------17b19====|
G|-(4)-----14-16-16b18r==(16)p14----------|
D|-----/16--------------------------------|
A|----------------------------------------|
E|----------------------------------------|

 ~~~~~~~
         |--3--|           |--3--|
   +e    s  s  s  s     s  s  s  s  s  s  s  s  e.     +s

e|-------14---------------------------------------------------|
B|-(17)r----17-14-------14-17p14------------------------------|
G|----------------16b18----------16-14----14-16-16b18==(16)r\-|
D|-------------------------------------16---------------------|
A|------------------------------------------------------------|
E|------------------------------------------------------------|

                     |--3--|
   s  s  s  s  s  s  s  s  s  t  t  s  s  t  t  s  s  s  s
e|-17p14----17p14----17p14-14-14h17p14-14-14h17p14----17-14-|
B|-------17-------14-------------------------------17-------|
G|----------------------------------------------------------|
D|----------------------------------------------------------|
A|----------------------------------------------------------|
E|----------------------------------------------------------|

   |--3--|        |--------7--------|  |------6-------|  |--3--|
   s  s  s  s  s  s  s  s  s  s  s  s  s  s  s  s  s  s  s  s  s  s  s
e|-20p14----19p14----17-19p14-14----19-19p14----19p14----19p14-14-19p14-|
B|-------17-------17-------------17----------17-------17----------------|
G|----------------------------------------------------------------------|
D|----------------------------------------------------------------------|
A|----------------------------------------------------------------------|
E|----------------------------------------------------------------------|

   |--3---|  |------6-------|        |--3--|   |-3-|
   e  e   e  s  s  s  s  s  s  s  s  s  s  s  +e   s  s  s
e|-19-17--------17------------------------------------------|
B|---------x-19----19-17-19-19-17s14-14h17p14-(14)-14-------|
G|----------------------------------------------------16-14-|
D|----------------------------------------------------------|
A|----------------------------------------------------------|
E|----------------------------------------------------------|

                                       ~~~~~~~
    |-3-|                           |3-|
   +e   s   e        q      q       s  e  +e
e|----------------------------------------------|
B|----------16b16.5--16b17--16b17---------------|
G|-(14)-16-(16)b16.5-16b18--16b18---14----------|
D|-------------------------------------16-(16)--|
A|----------------------------------------------|
E|----------------------------------------------|

 w/rhy fig 5
                       ~~
     e  e  e  e  e  e  q    e  e  e e  e  e  e  +e
e|------------------------|--------------------------|
B|--------------13-14-----|---14-14---14-16-16-(16)\-|
G|--------14-16-----------|---14-14---14-16-16-(16)\-|
D|-/16-16-------------14--|-x-------x----------------|
A|------------------------|--------------------------|
E|------------------------|--------------------------|

                       ~~
     e  e  e  e  e  e  q      e   e  e  e  e  q  e
e|------------------------|--------------------------|
B|--------------13-14-----|--------------------------|
G|--------14-16-----------|------14-14-15-16---------|
D|-/16-16-------------14--|-(16)-------------14--x\--|
A|------------------------|--------------------------|
E|------------------------|--------------------------|

 w/rhy fig 5 1st 2 bars
    e  q.      +h          h..             e
e|-14-14------(14)------|-14s==============x/-|
B|-14-14------(14)------|-14s==============x/-|
G|----------------------|---------------------|
D|----------------------|---------------------|
A|----------------------|---------------------|
E|----------------------|---------------------|


    e  q.      +q     q    w                   w
e|-14-14------(14)\------|------------------|--------*|
B|-14-14------(14)\------|------------------|--------*|
G|-----------------------|------------------|--------*|
D|-----------------------|------------------|--------*|
A|-----------------------|------------------|--------*|
E|-----------------------|------------------|--------*|
 |
 |gtrs i, ii
 |  pm|
 |  e  e  e e   e   e q    e e e e e e +q     +w
e|-----------------------|------------------|--------*|
B|-----------------------|------------------|--------*|
G|-----------------------|---2-2-3-4--------|--------*|
D|--------------------2--|---2-2-3-4-2-(2)--|-(2)----*|
A|--4--4--0-2---3---4-2--|---0-0-1-2-2-(2)--|-(2)----*|
E|--2--2--------------0--|-----------0-(0)--|-(0)----*|



************************************

| x    Dead note
| (n)  Ghost note
| h    Hammer-on
| p    Pull-off
| b    Bend
| pb   Pre-bend
| /    Slide up
| \    Slide down
| s    Slide

************************************
Suggest correction
comments
print report bad tab
10 comments total. Showing first comments. show 1 bad comment
-1 reply
monkey_xxx2003 660 wrote on March 23 2005, 12:00 am

4*

+5 reply
pinkvelocity 16 wrote on May 8 2007, 11:03 pm

music man dont be a faG. who cares if its out of the book. it means you Get to use it.

guest
You may want to rate the tab now too:
select rating
Wanna post a correction for this tab? Suggest correction