Oops, an error
Loading. Please wait.

My Friend Of Misery Tab

version 4
version 4
88,152 views 267 this week
8 commentsread comments
1 2 3 4 5
x 18
add to favorites
launch autoscroll
font size
0
reset
how to read this tab
guitar tuner
Autoscroll
slow
fast
+/-
esc
set tempo
stop
Help us to improve Ultimate-Guitar.com Take our survey!
×
Author
Ok here it is the whole "My friend of misery" tab...
EXECPT THE WAH SOLO...BUT YOU CAN FIND IT OUT THERE
any comments or suggestions..welcomed...
falco_funes@hotmai.com
I've also submitted: "Leaves eyes-Leaves eyes"...
Greetings from El Salvador...


My friend of misery-Metallica

[Intro]
(bass)


e|--------------------------------------------|
B|--------------------------------------------|
G|--------------------------------------------|
D|-----3--------3--------7-----5-----3--------|
A|-------5--------5----5-----5-----5---5------|
E|--0--------0-------0-----0-----0------------|

e|--------------------------------------------|
B|--------------------------------------------|
G|--------------------------------------------|
D|-----2--------2--------5----3-----2---------|
A|-------3--------3----3----3-----3---3-------|
E|--0--------0-------0----0-----0-------------|

a lot of times...

Guitar 1

e|--------------------------------------------|
B|--------------------------------------------|
G|--2-2~~~--------2~~~------------------------|
D|--3-3~~~--------2~~~------------------------|
A|--0-0~~~--------0~~~------------------------|
E|--------------------------------------------|


e|------------------------------|2x
B|------------------------------|
G|------------------------------|
D|R---3---3---------3---3--------|
A|-----5---0~~~------5---0~~~---|
E|------------------------------|


[Verse]

e|----------------------------------------------|
B|----------------------------------------------|
G|----------------------------------------------|
D|---3---3---3---3----------2---2---2---2s7-----|
A|-----5---0---5---0----------3---0---3---------|
E|----------------------------------------------|


[Bridge]

..."to save the world"...

e|---------------------------------------------------|
B|---------------------------------------------------|
G|---------------------------------------------------|
D|-----5------------------5----5--7-7~~--------------|
A|-0-3-------5----7---0-3---0--5---------------------|
E|-------0-3----5------------------------------------|


[Chorus]

e|------------------------------------------------------|
B|------------------------------------------------------|
G|----------------------2-2--2-4------------------------|
D|----------------2~----2-2--2-4------------------------|
A|--4-4--0-2-3-4--2~----0-0--0--------------------------|
E|--2-2-----------0~------------------------------------|

e|-------------------------------------------------------|
B|-------------------------------------------------------|
G|------------------------2-2-2--------------------------|
D|------------------2~----2-2-2-3-2~---------------------|
A|----4-4--0-2-3-4--2~----0-0-0-1-2~---------------------|
E|-0--2-2-----------0~------------0~---------------------|


[Fill]

e|---------------------------------------------|
B|---------------------------------------------|
G|---------------------------------------------|
D|--------2-------2-------2--------------------|
A|--3-----2-----3-3-------2--------------------|
E|--0-0-0-0-0-0-0-0-0-0-0-0--------------------|


[Verse]
[Bridge]
[Chorus]
[Fill]
(all again)


[Interlude] 

e|---------------------------------|
B|----------5~---------------------|
G|-------5~------------------------|
D|--7~------------7~---------------|
A|---------------------------------|
E|---------------------------------|

e|---------------------------------|
B|--5~-----------------------------|
G|------7~---5~----7~--------------|
D|---------------------------------|
A|---------------------------------|
E|---------------------------------|

e|------------------------------------------------------|
B|--10b--10----5~---------------10b--10-----------------|
G|----------------5~-----------------------5~--7~-------|
D|------------------------------------------------------|
A|------------------------------------------------------|
E|------------------------------------------------------|


e|-----------------0----0-----------------------------------0~~-------|
B|-------------3---3b---3-----------------------------------1~~-------|
G|----------2--------------2----------------------0h2-2---2-----------|
D|-----2h3---------------------------------0H2-2----------------------|
A|--0------------------------------------0----------------------------|
E|--------------------------------------------------------------------|


THIS IS DONE ON TWO SEPARATED GUITARS...HARMONY...

e|----------------------------------------------------------------------|
B|----\\10-----11h12-11b-------11------11--10----10h11-10------10-------|
G|----\\10-----12h10-12b-------12------10--9-----9h-12-9-------9--------|
D|----------------------------------------------------------------------|
A|----------------------------------------------------------------------|
E|----------------------------------------------------------------------|


e|----------------------------------------------------------|
B|--10h11h10/8h10h8/6h8h6------6/---10/-----------11h10-11b-|
G|--9h-10h9/-7h9h-7/5h7h5------5/---10/-----------12h10-12b-|
D|----------------------------------------------------------|
A|----------------------------------------------------------|
E|----------------------------------------------------------|


e|-------------------------------------------------------------------|
B|--11b---11h10-11b---11---10-----10h11-10~-----10h11h10/8-10--8h10h-|
G|--12b---12h10-12b---12---10-----9h-10-9~------9h-10h9/-7-9---7h9h--|
D|-------------------------------------------------------------------|
A|-------------------------------------------------------------------|
E|-------------------------------------------------------------------|


e|-------------------------------|
B|--8/6-8--6h8h6/5-6h5/1h5-1-----|
G|--7/5-7--5h7h5/4-5h4/2h4-2-----|
D|-------------------------------|
A|-------------------------------|
E|-------------------------------|


GUITAR 1

e|-13h10----10-13--13h10----10-13--13h10----10-|
B|-------10--------------10--------------10----|
G|---------------------------------------------|
D|---------------------------------------------|
A|---------------------------------------------|
E|---------------------------------------------|

e|--13h10----10-13--13h10----10-13--13h10----10-|
B|--------10--------------10--------------10----|
G|----------------------------------------------|
D|----------------------------------------------|
A|----------------------------------------------|
E|----------------------------------------------|

e|--12h8----8-12--12h8----8-12--12h8----8-|
B|-------10------------10------------10---|
G|----------------------------------------|
D|----------------------------------------|
A|----------------------------------------|
E|----------------------------------------|

e|--12h8----8-12h8------------------------|
B|-------10--------10-10-10h11h10h8-10~---|
G|----------------------------------------|
D|----------------------------------------|
A|----------------------------------------|
E|----------------------------------------|


e|--13h10----10-13--13h10----10-13--13h10----10-|
B|--------10--------------10--------------10----|
G|----------------------------------------------|
D|----------------------------------------------|
A|----------------------------------------------|
E|----------------------------------------------|


e|--13h10----10-13h10-13h10----10-13h10-13--13/-|
B|--------10----------------10------------------|
G|----------------------------------------------|
D|----------------------------------------------|
A|----------------------------------------------|
E|----------------------------------------------|

e|--20h17----17-20--20h17----17-20--20h17----17-----20/-20--22b---22~-----|
B|--------17--------------17--------------17------------------------------|
G|------------------------------------------------------------------------|
D|------------------------------------------------------------------------|
A|------------------------------------------------------------------------|
E|------------------------------------------------------------------------|


GUITAR 2

e|----------------------------------------------|
B|--15h10----10-15--15h10----10-15--15h10----10-|
G|--------10--------------10--------------10----|
D|----------------------------------------------|
A|----------------------------------------------|
E|----------------------------------------------|


e|--------------------------------------------------|
B|--15-10----10-15-10-15-10----10-15-10-15-10----10-|
G|--------10----------------10----------------10----|
D|--------------------------------------------------|
A|--------------------------------------------------|
E|--------------------------------------------------|

e|-------------------------------------------|
B|--13-10---10-13--13-10---10-13--13-10---10-|
G|--------9--------------9--------------9----|
D|-------------------------------------------|
A|-------------------------------------------|
E|-------------------------------------------|

e|-------------------------------------|
B|--13-10---10-13-10-------------------|
G|--------9----------9-9-9h10h9-7-9----|
D|-------------------------------------|
A|-------------------------------------|
E|-------------------------------------|

e|----------------------------------------------|
B|--15-10----10-15--15-10----10-15--15-10----10-|
G|--------10--------------10--------------10----|
D|----------------------------------------------|
A|----------------------------------------------|
E|----------------------------------------------|

e|----------------------------------------------|
B|--15-10----10-15-10-15-10----10-15-10-15--15/-|
G|--------10----------------10------------------|
D|----------------------------------------------|
A|----------------------------------------------|
E|----------------------------------------------|


e|------------------------------------------------17/-19--19/-20--20--------|
B|--22-17----17-22--22-17----17-22--22-17----17-----------------------------|
G|--------17--------------17--------------17--------------------------------|
D|--------------------------------------------------------------------------|
A|--------------------------------------------------------------------------|
E|--------------------------------------------------------------------------|


[Solo]
(Crazy wah)

e|---------------------------------|
B|---------------------------------|
G|--2-2-2--------------------------|
D|--2-2-2-3-2~---------------------|
A|--0-0-0-1-2~---------------------|
E|----------0~---------------------|



************************************

| h  Hammer-on
| b  Bend
| /  Slide up
| \  Slide down
| ~  Vibrato 

************************************
Suggest correction
comments
print report bad tab
8 comments total. Showing first comments. show 1 bad comment
0 reply
Zezerex 51 Dec 09, 2008 07:29 PM

great tab! 5/5, just one minor correction

here

e----------------------------------------------------------------------|
B----\\10-----11h12-11b-------11------11--10----10h11-10------10-------|
G----\\10-----12h10-12b-------12------10--9-----9h-12-9-------9--------|
D----------------------------------------------------------------------|
A----------------------------------------------------------------------|
E----------------------------------------------------------------------|

e----------------------------------------------------------------------|
B----\\10-----11h12-11b-------11------11--10----10h11-10------10-------|
G----\\10-----12p10-12b-------12------10--9-----9h-12-9-------9--------|
D---------------*------------------------------------------------------|
A---------------*------------------------------------------------------|
E---------------*------------------------------------------------------|
its supposed to be a pull off

+1 reply
l.a.ibanez123 50 Dec 30, 2008 04:52 PM

i love this song thanks

guest
You may want to rate the tab now too:
select rating
Wanna post a correction for this tab? Suggest correction