Oops, an error
Loading. Please wait.

My Friend Of Misery Tab

version 5
version 5
15,942 views 42 this week
3 commentsread comments
1 2 3 4 5
x 9
add to favorites
launch autoscroll
font size
0
reset
how to read this tab
guitar tuner
backing track
0:00
0:00
Autoscroll
slow
fast
+/-
esc
set tempo
stop
Author
Difficulty
intermediate
e|------------------------------------------------------|
B|------------------------------------------------------|
G|---10------10------10------10-14------12------10------|
D|------12------12------12---------12------12------12---|
A|-0-------0-------0-------0----------0-------0-------0-|
E|------------------------------------------------------|  (x2)
                                                           
e|-------------------------------------------------|         
B|-------------------------------------------------|
G|--9------9------9-------9-12------10------9------|
D|----10-----10-----10---------10------10-----10---|
A|-------0------0------0----------0-------0------0-|
E|-------------------------------------------------|

(Guitar during Interlude)
e|------------------------------------------|
B|------------------------------------------|
G|-2-2~~~~~~~~~~~~~~~~~~2~~~~~~~~~~~~~~~~~~-|
D|-3-3~~~~~~~~~~~~~~~~~~2~~~~~~~~~~~~~~~~~~-|  (x2)
A|-0-0~~~~~~~~~~~~~~~~~~0~~~~~~~~~~~~~~~~~~-|
E|------------------------------------------|

e|------------------------------------------|
B|------------------------------------------|
G|------------------------------------------|
D|-3---3-----2---2----3---3-----2---2-2/7~~-|
A|---5---0~----3---0~---5---0~----3---------|
E|------------------------------------------|

e|----------------------------------------|
B|----------------------------------------|
G|----------------------------------------|
D|-3---3----3---3----2---2----2---2-2/7~~-|   (x2)
A|---5---0~---5---0~---3---0~---3---------|
E|----------------------------------------|

[Verse]
e|------------------------------------------------|
B|------------------------------------------------|
G|------------------------------------------------|   (x4)
D|-3---3---3---3---3---------2---2----2---2-2/7~~-|
A|---5---0---5---5---0~---3----3---0~---3---------|
E|----------------------3-------------------------|

[Pre-Chorus]
e|---------------------------|
B|---------------------------|
G|---------------------------|
D|-----5-----------5---------|
A|-0-3-------5-0-3---3-3-5-3-|
E|-------0-3-----------------|
   . . . . . . . . . . . . .

[Chorus]
e|---------------------------|
B|---------------------------|
G|---------------2--2-2--2-2-|
D|-4-4-4---------2--2-2--2-2-|  (x4)
A|-4-4-4-0-2-3-4-0--0-0--0-0-|
E|-2-2-2---------------------|

e|--------------------------------|
B|--------------------------------|
G|-2-3-4-4------------------------|
D|-2-3-4-4-4~--4-4--4-4--4-4--4-4-|
A|-0-1-2-2-4~--4-4--4-4--4-4--4-4-|
E|---------2~--2-2--2-2--2-2--2-2-|
               . .  . .  . .  . .

[Interlude]
e|------------------------------------------|
B|------------------------------------------|
G|-2-2~~~~~~~~~~~~~~~~~~2~~~~~~~~~~~~~~~~~~-|
D|-3-3~~~~~~~~~~~~~~~~~~2~~~~~~~~~~~~~~~~~~-|  (x2)
A|-0-0~~~~~~~~~~~~~~~~~~0~~~~~~~~~~~~~~~~~~-|
E|------------------------------------------|

[Verse]
e|------------------------------------------------|
B|------------------------------------------------|
G|------------------------------------------------|   (x4)
D|-3---3---3---3---3---------2---2----2---2-2/7~~-|
A|---5---0---5---5---0~---3----3---0~---3---------|
E|----------------------3-------------------------|

[Pre-Chorus]
e|---------------------------|
B|---------------------------|
G|---------------------------|
D|-----5-----------5---------|
A|-0-3-------5-0-3---3-3-5-3-|
E|-------0-3-----------------|
   . . . . . . . . . . . . .

[Chorus]
e|---------------------------|
B|---------------------------|
G|---------------2--2-2--2-2-|
D|-4-4-4---------2--2-2--2-2-|  (x4)
A|-4-4-4-0-2-3-4-0--0-0--0-0-|
E|-2-2-2---------------------|

e|--------------------------------|
B|--------------------------------|
G|-2-3-4-4------------------------|
D|-2-3-4-4-4~--4-4--4-4--4-4--4-4-|
A|-0-1-2-2-4~--4-4--4-4--4-4--4-4-|
E|---------2~--2-2--2-2--2-2--2-2-|
               . .  . .  . .  . .

[Interlude]
e|---------------------------------------------------------------|
B|---------------------------------------------------------------|
G|-2-2~~~~~~~~~~~~~~~~~~2~~~~~~~~~~~~~~~~~~2-2~~~~~~~~~~~~~~~~~~-|
D|-3-3~~~~~~~~~~~~~~~~~~2~~~~~~~~~~~~~~~~~~3-3~~~~~~~~~~~~~~~~~~-|
A|-0-0~~~~~~~~~~~~~~~~~~0~~~~~~~~~~~~~~~~~~0-0~~~~~~~~~~~~~~~~~~-|
E|---------------------------------------------------------------|

[Bridge] 
(or Middle 8)
e|--------------------------|
B|-------5~-----5~----------|
G|----5~-----------7~-5~-7~-|
D|-7~-------7~--------------|
A|--------------------------|
E|--------------------------|

[Interlude 2] 
(Clean)
e|---------0-0-0-0-0-0~---------------0----------0-0-0-0-0-0~---------------0-|
B|---------3-3/5-5/3-3~---------------1----------3-3/5-5/3-3~---------------1-|
G|-------2----------------------0h2-0----------2----------------------0h2-2---|
D|---2h3------------------0h2-2------------2h3------------------0h2-2---------|
A|-0--------------------0----------------0--------------------0---------------|
E|----------------------------------------------------------------------------|

e|---------0-0-0-0-0-0~---------------0-|
B|---------3-3/5-5/3-3~---------------1-|
G|-------2----------------------0h2-0---|
D|---2h3------------------0h2-2---------|
A|-0--------------------0---------------|
E|--------------------------------------|

[Solo] 
(Hetfield)
e|----------------------------------------------------------------------------|
B|----------------------------------------------------------------------------|
G|-/10-10h12-9-12br-10h12-9-10p9-7h9p7-5h7p5~5-5/10-12p10-12-12b-br-10-12b-br-|
D|----------------------------------------------------------------------------|
A|----------------------------------------------------------------------------|
E|----------------------------------------------------------------------------|

e|---------------------------------------13p10----13-13p10----13-13p10----|
B|---------------------------------------------10----------10----------10-|
G|-10h12-9-9h10p9-7h9p7-7p5-4h5p4-2h4p2-----------------------------------|
D|------------------------------------------------------------------------|
A|------------------------------------------------------------------------|
E|------------------------------------------------------------------------|

e|-13p10----13-13p10----13-13p10-----12p8----12-12p8----12-12p8----|
B|-------10----------10----------10-------10---------10---------10-|
G|-----------------------------------------------------------------|
D|-----------------------------------------------------------------|
A|-----------------------------------------------------------------|
E|-----------------------------------------------------------------|

e|-12p8-------------------13p10----13-13p10----13-13p10----|
B|------10----------------------10----------10----------10-|
G|------------7h9p7-5/4h5----------------------------------|
D|---------------------------------------------------------|
A|---------------------------------------------------------|
E|---------------------------------------------------------|

e|-13p10----13-13p10----13-13p10----|
B|-------10----------10----------10-|
G|----------------------------------|
D|----------------------------------|
A|----------------------------------|
E|----------------------------------|

e|-20p17-17-20-20p17-17-20p17-17-17-20-22-22b-22-22-22br\\\-|
B|----------------------------------------------------------|
G|----------------------------------------------------------|
D|----------------------------------------------------------|
A|----------------------------------------------------------|
E|----------------------------------------------------------|

[Solo] 
(Hammet) (Wah pedal)
(Pick while Bending)
e|-------------------------------|
B|-------------------------------|
G|-16b-br--------16-14~~\-----14-|
D|------------------------/16----|
A|-------------------------------|
E|-------------------------------|

e|---------------------------------------------------------------|
B|----------------------------------------------------------17b~-|
G|-16b~--16--16b--14----------14----16b-br-p14-16b-br-p14--------|
D|-------------------16-14-16------------------------------------|
A|---------------------------------------------------------------|
E|---------------------------------------------------------------|

e|--17b---17b---17b---17b-br--14~~~------|
B|-----------------------------------17--|
G|---------------------------------------|
D|---------------------------------------|
A|---------------------------------------|
E|---------------------------------------|

e|----------------------------------------------|
B|--17---------------------------------------14-|
G|-----16b--16b--16b----14-------------14----14-|
D|-------------------------16~~-14--16----------|
A|----------------------------------------------|
E|----------------------------------------------|

[Chorus]
e|---------------------------|
B|---------------------------|
G|---------------2--2-2--2-2-|
D|-4-4-4---------2--2-2--2-2-|  (x4)
A|-4-4-4-0-2-3-4-0--0-0--0-0-|
E|-2-2-2---------------------|

e|--------------------------------|
B|--------------------------------|
G|-2-3-4-4------------------------|
D|-2-3-4-4-4~--4-4--4-4--4-4--4-4-|
A|-0-1-2-2-4~--4-4--4-4--4-4--4-4-|
E|---------2~--2-2--2-2--2-2--2-2-|
               . .  . .  . .  . .


************************************

| ~   Vibrato
| /   Slide up
| .   Staccato
| h   Hammer-on
| p   Pull-off
| b   Bend
| br  Bend release 

************************************
Suggest correction
comments
print report bad tab
3 comments total.
+1 reply
CrashKiller62 57 Jan 13, 2011 06:35 AM

sry i forgott the ending of the middle 8 but its simply only on the g string:

G-12br-10-7-5--12br-10-5-7-

then the interlude sets in sry about this mistake ;)

0 reply
frax21 50 Apr 25, 2017 07:10 AM, edited at 11:11 am

The chorus is wrong, on the g string it should go:D-2-2---------2A-4-4-0-2-3-4-2E-4-4---------0And then continue as the tab says

0 reply
frax21 50 Apr 25, 2017 07:12 AM

Sorry, I mean this:
D-2-2---------2
A-4-4-0-2-3-4-2
E-4-4---------0

guest
You may want to rate the tab now too:
select rating
Wanna post a correction for this tab? Suggest correction