Oops, an error
Loading. Please wait.

No Leaf Clover Tab

version 7
172,533 views 165 this week
15 commentsread comments
1 2 3 4 5
excellent!
x 58
add to favorites
launch autoscroll
font size
0
reset
how to read this tab
guitar tuner
Autoscroll
slow
fast
+/-
esc
set tempo
stop
Help us to improve Ultimate-Guitar.com Take our survey!
×
[INTRO]

0:00

eb|-------------------------3-------------------------2-|
Bb|-------------------------3-------------------------2-|
Gb|-------------------------3-------------------------4-|
Db|--2-2-2--2--2-0-2--2-0-2-5--2-2-2--2--2-0-2--2-2-2-4-|
Ab|--2-2-2--2--2-0-2--2-0-2-5--2-2-2--2--2-0-2--2-2-2-2-|
Eb|--0-0-0--0--0-0-0--0-0-0-3--0-0-0--0--0-0-0--0-0-0-2-|

eb|-------------------------3----3----3-|
Bb|-------------------------3----3----3-|
Gb|-------------------------3----3----3-|
Db|--2-2-2--2--2-0-2--2-0-2-5--2-5--2-5-|
Ab|--2-2-2--2--2-0-2--2-0-2-5--2-5--2-5-|
Eb|--0-0-0--0--0-0-0--0-0-0-3--0-3--0-3-| (x2)

GUITAR (clean)

0:29

eb|--7---7---8----8----7---7---8----8----|
Bb|--8---8---10---10---7---7---10---10---|
Gb|----9---9----9----9---8---8----9----9-|
Db|--------------------------------------|
Ab|--------------------------------------|
Eb|--------------------------------------|

eb|--7---7---8----8----7---7-----------------|
Bb|--8---8---10---10---7---7-------10-----10-|
Gb|----9---9----9----9---8---8-8/9----8/9----|
Db|------------------------------------------|
Ab|------------------------------------------|
Eb|------------------------------------------|

eb|--7---7---8----8----7---7----------10-8----|
Bb|--8---8---10---10---7---7-------10------10-|
Gb|----9---9----9----9---8---8-8/9------------|
Db|-------------------------------------------|
Ab|-------------------------------------------|
Eb|-------------------------------------------|

eb|--7---7---8----8----7---7-----------8----|
Bb|--8---8---10---10---7---7-------10----10-|
Gb|----9---9----9----9---8---8-8/9----------|
Db|-----------------------------------------|
Ab|-----------------------------------------|
Eb|-----------------------------------------|

[PRE-HEAVY VERSE]

0:55

eb|------------        -----------------------        -2-------|
Bb|------------        -----------------------        -2-------|
Gb|------------        -----------------------        -2-------|
Db|------------        2-----2----------------        -4---2---|
Ab|----2~--3~2~        2-----2--------2~--3~2~        -4---2---|
Eb|--0---0----- then   0-0-0-0-0-0--0---0----- (x3)   -2---0---|


[HEAVY VERSE]

("And it feels right this time") 

1:10

eb|----------------------------------------------------|
Bb|----------------------------------------------------|
Gb|--2--4------------5--4------------2--4-----5--4-4-4-|
Db|--2--4------------5--4------------2--4--5--5--4-4-4-|
Ab|--0--2---2~--3~2~-3--2---2~--3~2~-0--2--5--3--2-2-2-|
Eb|-------0---0-----------0---0------------3-----------|


[LIGHT VERSE] 

("Then it comes to be")

1:48

eb|--7---7---8----8----7---7---8----8----|
Bb|--8---8---10---10---7---7---10---10---|
Gb|----9---9----9----9---8---8----9----9-|
Db|--------------------------------------|
Ab|--------------------------------------|
Eb|--------------------------------------|

eb|--7---7---8----8----7---7-----------------|
Bb|--8---8---10---10---7---7-------10-----10-|
Gb|----9---9----9----9---8---8-8/9----8/9----|
Db|------------------------------------------|
Ab|------------------------------------------|
Eb|------------------------------------------|

eb|--7---7---8----8----7---7----------10-8----|
Bb|--8---8---10---10---7---7-------10------10-|
Gb|----9---9----9----9---8---8-8/9------------|
Db|-------------------------------------------|
Ab|-------------------------------------------|
Eb|-------------------------------------------|

eb|--7---7---8----8----7---7-----------8----|
Bb|--8---8---10---10---7---7-------10----10-|
Gb|----9---9----9----9---8---8-8/9----------|
Db|-----------------------------------------|
Ab|-----------------------------------------|
Eb|-----------------------------------------|


[HEAVY VERSE] 

("Don't it feel right like this") 

2:15


[LIGHT VERSE] 

("And then it comes to be")  

2:34


[SOLO]

3:16

With wah
eb|--7-----8---10--|-12--12--12-------12---------12----------------|
Bb|--10b---11b-13b-|-15b-15b-15b--/12----12-15b-----15p12----------|
Gb|----------------|--------------------------------------14p12----|
Db|----------------|--------------------------------------------14-|
Ab|----------------|-----------------------------------------------|
Eb|----------------|-----------------------------------------------|

eb|-------------------------------------------12----------------------|
Bb|----------------------------------------12----12-15-12h15p12----12-|
Gb|-14b-14b-14b-14--12----12---------12-14----------------------14b---|
Db|--------------------14~---14~-/14----------------------------------|
Ab|-------------------------------------------------------------------|
Eb|-------------------------------------------------------------------|

eb|--------------------|-------14h17p14------------------------------|
Bb|--------------------|-14h17----------17p14-14h17p14---------------|
Gb|-14p12-14p12-----12-|-------------------------------16p14-16b-16--|b
Db|-------------14-----|---------------------------------------------|
Ab|--------------------|---------------------------------------------|
Eb|--------------------|---------------------------------------------|

eb|--------|------------------------------------15br-----12-15p12----|
Bb|--------|---------15b----------15b-----------------15-------------|
Gb|--14----|------12-----------12-----------12-----------------------|
Db|-----16-|--/14----------/14----------/14--------------------------|
Ab|--------|---------------------------------------------------------|
Eb|--------|---------------------------------------------------------|

eb|----12-15p12----12-15-16b-17b-17b-17b~--12-15-12h15p12----12-------|
Bb|-15----------15----------------------------------------15----15p12-|
Gb|-------------------------------------------------------------------|
Db|-------------------------------------------------------------------|
Ab|-------------------------------------------------------------------|
Eb|-------------------------------------------------------------------|

eb|--------------------------------------|-------14-----14-------|
Bb|----12-15-12--------------------------|---17b----17b----17p14-|
Gb|-14----------14-12--14br-12----12-----|-----------------------|
Db|----------------------------14----14\-|-----------------------|
Ab|--------------------------------------|-----------------------|
Eb|--------------------------------------|-----------------------|

eb|-----14------------14--------17br\14\----|
Bb|-17b----17p14--17b----17p14--------------|
Gb|-----------------------------------------|
Db|-----------------------------------------|
Ab|-----------------------------------------|
Eb|-----------------------------------------|


[POST SOLO] 

3:41

eb|-------------------------3-------------------------2-|
Bb|-------------------------3-------------------------2-|
Gb|-------------------------3-------------------------4-|
Db|--2-2-2--2--2-0-2--2-0-2-5--2-2-2--2--2-0-2--2-2-2-4-|
Ab|--2-2-2--2--2-0-2--2-0-2-5--2-2-2--2--2-0-2--2-2-2-2-|
Eb|--0-0-0--0--0-0-0--0-0-0-3--0-0-0--0--0-0-0--0-0-0-2-|

eb|-------------------------3----3----3-|
Bb|-------------------------3----3----3-|
Gb|-------------------------3----3----3-|
Db|--2-2-2--2--2-0-2--2-0-2-5--2-5--2-5-|
Ab|--2-2-2--2--2-0-2--2-0-2-5--2-5--2-5-|
Eb|--0-0-0--0--0-0-0--0-0-0-3--0-3--0-3-|


[Kirk's POST SOLO Lead]

4:03

eb|---------------------------------------------------|
Bb|---------------------------------------------------|
Gb|-----12--------12--------12----------12------------|
Db|----------14~-------14~--------14~-------13~-------|
Ab|---------------------------------------------------|
Eb|---------------------------------------------------| (x3)

eb|--------------------------------------------------------------------------|
Bb|--------------------------------------------------------------------------|
Gb|---12------12-------14-------14-------11-------11-------14-------14-------|
Db|-------14------14-------14-------14-------13-------13-------14-------14---|
Ab|--------------------------------------------------------------------------|
Eb|--------------------------------------------------------------------------|


[FINALÉ]

("And then it comes to be")

4:25

eb|--------------|
Bb|--------------|
Gb|-----2--4--2--|
Db|--2--2--4--2--|
Ab|--2--0--2--0--|
Eb|--0-----------| (x2)


At 4:37

eb|----------------|
Bb|----------------|
Gb|----4--5--4-----|
Db|-2--4--5--4—-2--|
Ab|-2--2--3--2—-2--|
Eb|-0-----------0--|  (x4)


[END]

5:02

eb|-------------------------3-|
Bb|-------------------------3-|
Gb|-------------------------3-|
Db|--2-2-2--2--2-0-2--2-0-2-5-|
Ab|--2-2-2--2--2-0-2--2-0-2-5-|
Eb|--0-0-0--0--0-0-0--0-0-0-3-|

eb|-------------------------3----3----3--2-|
Bb|-------------------------3----3----3--2-|
Gb|-------------------------3----3----3--4-|
Db|--2-2-2--2--2-0-2--2-0-2-5--2-5--2-5--4-|
Ab|--2-2-2--2--2-0-2--2-0-2-5--2-5--2-5--2-|
Eb|--0-0-0--0--0-0-0--0-0-0-3--0-3--0-3—-2-| hold




************************************

| h   Hammer-on
| p   Pull-off
| b   Bend
| br  Bend release
| /   Slide up
| \   Slide down
| ~   Vibrato

************************************
Suggest correction
comments
print report bad tab
15 comments total. Showing first comments.
+2 reply
skatersic666 547 wrote on October 1 2004, 12:00 am

Fine tab, five stars my friend...

+6 reply
kh203 10 wrote on December 31 2004, 12:00 am

My only thing is, what about kirk's little lead things he does during the "clean verse"? other than that awesome tab

+2 reply
RRRone 10 wrote on June 21 2006, 07:40 am

dont it feel right like this??
it surely does

guest
You may want to rate the tab now too:
select rating
Please do not post tabs as comments. Select "correction" instead!