Oops, an error
Loading. Please wait.

No Leaf Clover Tab

version 7
169,242 views 144 this week
15 commentsread comments
1 2 3 4 5
excellent!
x 55
add to favorites
launch autoscroll
font size
0
reset
how to read this tab
guitar tuner
Tab Pro tools
  • play this tab
  • loop segment
  • change instrument
  • show fretboard
  • metronome
×
Best way to learn
"No Leaf Clover"
Autoscroll
slow
fast
+/-
esc
set tempo
stop
-----------------------------------------------------------------------------
NO LEAF CLOVER - Metallica
-----------------------------------------------------------------------------
Tabbed by: Hazza
Email: HarrisonBRO@aol.com or HarrisonBRO@hotmail.com

TUNING:
String:  6  5  4  3  2  1
Note:    Eb,Ab,Eb,Gb,Bb,Eb

Any questions, just E-Mail me (HarrisonBRO@aol.com or   HarrisonBRO@hotmail.com)

(Note:
 - The times (eg: 0.29) show when that section of the tab starts. In minuites and 
from the official album version.
 -
ORCHESTRAL INTRO - 0.00:
Eb-------------------------3-------------------------2-|
Bb-------------------------3-------------------------2-|
Gb-------------------------3-------------------------4-|
Db--2-2-2--2--2-0-2--2-0-2-5--2-2-2--2--2-0-2--2-2-2-4-|
Ab--2-2-2--2--2-0-2--2-0-2-5--2-2-2--2--2-0-2--2-2-2-2-|
Eb--0-0-0--0--0-0-0--0-0-0-3--0-0-0--0--0-0-0--0-0-0-2-|

Eb-------------------------3----3----3-|
Bb-------------------------3----3----3-|
Gb-------------------------3----3----3-|
Db--2-2-2--2--2-0-2--2-0-2-5--2-5--2-5-|
Ab--2-2-2--2--2-0-2--2-0-2-5--2-5--2-5-|
Eb--0-0-0--0--0-0-0--0-0-0-3--0-3--0-3-| (x2)

GUITAR (clean) - 0.29:
eb--7---7---8----8----7---7---8----8----|
Bb--8---8---10---10---7---7---10---10---|
Gb----9---9----9----9---8---8----9----9-|
Db--------------------------------------|
Ab--------------------------------------|
Eb--------------------------------------|

eb--7---7---8----8----7---7-----------------|
Bb--8---8---10---10---7---7-------10-----10-|
Gb----9---9----9----9---8---8-8/9----8/9----|
Db------------------------------------------|
Ab------------------------------------------|
Eb------------------------------------------|

eb--7---7---8----8----7---7----------10-8----|
Bb--8---8---10---10---7---7-------10------10-|
Gb----9---9----9----9---8---8-8/9------------|
Db-------------------------------------------|
Ab-------------------------------------------|
Eb-------------------------------------------|

eb--7---7---8----8----7---7-----------8----|
Bb--8---8---10---10---7---7-------10----10-|
Gb----9---9----9----9---8---8-8/9----------|
Db-----------------------------------------|
Ab-----------------------------------------|
Eb-----------------------------------------|

PRE-HEAVY VERSE - 0.55:
Eb------------        -----------------------        -2-------|
Bb------------        -----------------------        -2-------|
Gb------------        -----------------------        -2-------|
Db------------        2-----2----------------        -4---2---|
Ab----2~--3~2~        2-----2--------2~--3~2~        -4---2---|
Eb--0---0----- then   0-0-0-0-0-0--0---0----- (x3)   -2---0---|

HEAVY VERSE ("And it feels right this time") - 1.10:
Eb----------------------------------------------------|
Bb----------------------------------------------------|
Gb--2--4------------5--4------------2--4-----5--4-4-4-|
Db--2--4------------5--4------------2--4--5--5--4-4-4-|
Ab--0--2---2~--3~2~-3--2---2~--3~2~-0--2--5--3--2-2-2-|
Eb-------0---0-----------0---0------------3-----------|


LIGHT VERSE ("Then it comes to be") - 1.48:
eb--7---7---8----8----7---7---8----8----|
Bb--8---8---10---10---7---7---10---10---|
Gb----9---9----9----9---8---8----9----9-|
Db--------------------------------------|
Ab--------------------------------------|
Eb--------------------------------------|

eb--7---7---8----8----7---7-----------------|
Bb--8---8---10---10---7---7-------10-----10-|
Gb----9---9----9----9---8---8-8/9----8/9----|
Db------------------------------------------|
Ab------------------------------------------|
Eb------------------------------------------|

eb--7---7---8----8----7---7----------10-8----|
Bb--8---8---10---10---7---7-------10------10-|
Gb----9---9----9----9---8---8-8/9------------|
Db-------------------------------------------|
Ab-------------------------------------------|
Eb-------------------------------------------|

eb--7---7---8----8----7---7-----------8----|
Bb--8---8---10---10---7---7-------10----10-|
Gb----9---9----9----9---8---8-8/9----------|
Db-----------------------------------------|
Ab-----------------------------------------|
Eb-----------------------------------------|

HEAVY VERSE ("Don't it feel right like this") - 2.15


LIGHT VERSE ("And then it comes to be") - 2.34


SOLO - 3.16:

With wah
1|--7-----8---10--|-12--12--12-------12---------12----------------|
2|--10b---11b-13b-|-15b-15b-15b--/12----12-15b-----15p12----------|
3|----------------|--------------------------------------14p12----|
4|----------------|--------------------------------------------14-|
5|----------------|-----------------------------------------------|
6|----------------|-----------------------------------------------|

1|-------------------------------------------12----------------------|
2|----------------------------------------12----12-15-12h15p12----12-|
3|-14b-14b-14b-14--12----12---------12-14----------------------14b---|
4|--------------------14~---14~-/14----------------------------------|
5|-------------------------------------------------------------------|
6|-------------------------------------------------------------------|

1|--------------------|-------14h17p14------------------------------|
2|--------------------|-14h17----------17p14-14h17p14---------------|
3|-14p12-14p12-----12-|-------------------------------16p14-16b-16--|b
4|-------------14-----|---------------------------------------------|
5|--------------------|---------------------------------------------|
6|--------------------|---------------------------------------------|

1|--------|------------------------------------15br-----12-15p12----|
2|--------|---------15b----------15b-----------------15-------------|
3|--14----|------12-----------12-----------12-----------------------|
4|-----16-|--/14----------/14----------/14--------------------------|
5|--------|---------------------------------------------------------|
6|--------|---------------------------------------------------------|

1|----12-15p12----12-15-16b-17b-17b-17b~--12-15-12h15p12----12-------|
2|-15----------15----------------------------------------15----15p12-|
3|-------------------------------------------------------------------|
4|-------------------------------------------------------------------|
5|-------------------------------------------------------------------|
6|-------------------------------------------------------------------|

1|--------------------------------------|-------14-----14-------|
2|----12-15-12--------------------------|---17b----17b----17p14-|
3|-14----------14-12--14br-12----12-----|-----------------------|
4|----------------------------14----14\-|-----------------------|
5|--------------------------------------|-----------------------|
6|--------------------------------------|-----------------------|

1|-----14------------14--------17br\14\----|
2|-17b----17p14--17b----17p14--------------|
3|-----------------------------------------|
4|-----------------------------------------|
5|-----------------------------------------|
6|-----------------------------------------|

POST SOLO - 3.41:
Eb-------------------------3-------------------------2-|
Bb-------------------------3-------------------------2-|
Gb-------------------------3-------------------------4-|
Db--2-2-2--2--2-0-2--2-0-2-5--2-2-2--2--2-0-2--2-2-2-4-|
Ab--2-2-2--2--2-0-2--2-0-2-5--2-2-2--2--2-0-2--2-2-2-2-|
Eb--0-0-0--0--0-0-0--0-0-0-3--0-0-0--0--0-0-0--0-0-0-2-|

Eb-------------------------3----3----3-|
Bb-------------------------3----3----3-|
Gb-------------------------3----3----3-|
Db--2-2-2--2--2-0-2--2-0-2-5--2-5--2-5-|
Ab--2-2-2--2--2-0-2--2-0-2-5--2-5--2-5-|
Eb--0-0-0--0--0-0-0--0-0-0-3--0-3--0-3-|

Kirk's POST SOLO Lead - 4.03:
eb---------------------------------------------------|
Bb---------------------------------------------------|
Gb-----12--------12--------12----------12------------|
Db----------14~-------14~--------14~-------13~-------|
Ab---------------------------------------------------|
Eb---------------------------------------------------| (x3)

eb--------------------------------------------------------------------------|
Bb--------------------------------------------------------------------------|
Gb---12------12-------14-------14-------11-------11-------14-------14-------|
Db-------14------14-------14-------14-------13-------13-------14-------14---|
Ab--------------------------------------------------------------------------|
Eb--------------------------------------------------------------------------|

FINALÉ ("And then it comes to be") - 4.25:
Gb-----2--4--2--|
Db--2--2--4--2--|
Ab--2--0--2--0--|
Eb--0-----------| (x2)

At 4.37:
Gb----4--5--4-----|
Db-2--4--5--4—-2--|
Ab-2--2--3--2—-2--|
Eb-0-----------0--|  (x4)

END - 5.02:
Eb-------------------------3-|
Bb-------------------------3-|
Gb-------------------------3-|
Db--2-2-2--2--2-0-2--2-0-2-5-|
Ab--2-2-2--2--2-0-2--2-0-2-5-|
Eb--0-0-0--0--0-0-0--0-0-0-3-|

Eb-------------------------3----3----3--2-|
Bb-------------------------3----3----3--2-|
Gb-------------------------3----3----3--4-|
Db--2-2-2--2--2-0-2--2-0-2-5--2-5--2-5--4-|
Ab--2-2-2--2--2-0-2--2-0-2-5--2-5--2-5--2-|
Eb--0-0-0--0--0-0-0--0-0-0-3--0-3--0-3—-2-| hold__


| /  slide up
| \  slide down
| h  hammer-on
| p  pull-off
| ~  vibrato
comments
print report bad tab
15 comments total. Showing first comments.
+2 reply
skatersic666 wrote on October 1 2004, 12:00 am

Fine tab, five stars my friend...

+5 reply
kh203 wrote on December 31 2004, 12:00 am

My only thing is, what about kirk's little lead things he does during the "clean verse"? other than that awesome tab

+2 reply
RRRone wrote on June 21 2006, 07:40 am

dont it feel right like this??
it surely does

I want to post or [tab]
guest
You may want to rate the tab now too:
select rating
Please do not post tabs as comments. Select "correction" instead!