Oops, an error
Loading. Please wait.

Nothing Else Matters Tab

571,862 views 1,185 this week
28 commentsread comments
1 2 3 4 5
accurate
x 68
add to favorites
launch autoscroll
font size
0
reset
how to read this tab
guitar tuner
Autoscroll
slow
fast
+/-
esc
set tempo
stop
Help us to improve Ultimate-Guitar.com Take our survey!
×
Contributor
KaKilla 220
Metallica Nothing Else Matters Solo

This didn't work out the way I planned it! Lol
But it is the right solo, from Guitar One

Gtr I (E A D G B E)
Gtr II (E A D G B E)
Gtr III (E A D G B E)
Gtr IV (E A D G B E)


 
[Solo]

 Q.=46
 6/8
  Gtr IV
                      ~~~                           ~~~
   Q      S       S   Q   S  S    S  S  S  S  S  S  E.  S  S  S
|------------------------------|--------------------------------|
|-15---------------------------|--------------------------------|
|-14b16--14pb16r(14)-12---x-12-|-11h12p11----11--------12-14-12-|
|------------------------------|----------14----12-14-----------|
|------------------------------|--------------------------------|
|------------------------------|--------------------------------|
|
| Gtr III
|                                                          PM|
|  Q.                 Q.          Q           E     Q      S  S
|------------------------------|--------------------------------|
|------------------------------|--------------------------------|
|------------------------------|--------------------------------|
|---------------------9--------|--7-----------7-----5-----------|
|--2------------------7--------|--5-----------5-----3-----------|
|--0---------------------------|---------------------------3--2-|


   S     S  S  S     S  S  S  S  S  S  S  S
|----------12----------12---------------------|
|-------12----------12----15p12----12---------|
|-14b16-------14b16-------------15----15-14---|
|---------------------------------------------|
|---------------------------------------------|
|---------------------------------------------|
|
|  Q.                      Q.
|---------------------------------------------|
|---------------------------------------------|
|---------------------------------------------|
|--------------------------9------------------|
|--2-----------------------7------------------|
|--0------------------------------------------|


                            ~~                           ~~
   T      T   S  S S  S  S  Q   +E         E   E  E  E   E  a  S.  T
|--------------------------------------|-/15--14----15--14-15s17--17-|
|---------------14---14-13-------------|---------12------------------|
|-12b14r(12)----14---14-13-12--(12)\---|-----------------------------|
|------------14------------------------|-----------------------------|
|--------------------------------------|-----------------------------|
|--------------------------------------|-----------------------------|
|
|                                PM--|
|  Q                  E     Q    S   S     Q.        Q.
|--------------------------------------|-----------------------------|
|--------------------------------------|-----------------------------|
|--------------------------------------|-----------------------------|
|--7------------------7-----5----------|-------------9---------------|
|--5------------------5-----3----------|---2---------7---------------|
|--------------------------------3---2-|---0-------------------------|


      |--3--|
   S  T  T  T  S  S  S  S  E.  S  S  S
|-15-14h15p14s12----15-14--------------|
|----------------12-------12-----------|
|-----------------------------12-14-12-|
|--------------------------------------|
|--------------------------------------|
|--------------------------------------|
|
|  Q                 E     Q.
|--------------------------------------|
|--------------------------------------|
|--------------------------------------|
|--7-----------------7-----5-----------|
|--5-----------------5-----3-----------|
|--------------------------------------|


   S     T   T   S  S  S     S  E   S  S       S       T   T
|------------------------------12----------------------------|
|-15------------------------12-----15-15b17==(15)b17r(15)-12-|
|-14b16r14p(12)----12-14b16----------------------------------|
|---------------14-------------------------------------------|
|------------------------------------------------------------|
|------------------------------------------------------------|
|
|  Q.                           Q.
|------------------------------------------------------------|
|------------------------------------------------------------|
|------------------------------------------------------------|
|------------------------------------------------------------|
|--5----------------------------4----------------------------|
|--3----------------------------2----------------------------|


   H.            +H       E       E     S   S  Q   +Q   E    S  S Q  +Q.
|-------------|----------------------|--------------------|----------------*|
|-15b17=======|=(15)----(15)b17r(15)p|=12h=15p12--(12)s=7s|==5h=7p5--(5)---*|
|-------------|----------------------|--------------------|----------------*|
|-------------|----------------------|--------------------|----------------*|
|-------------|----------------------|--------------------|----------------*|
|-------------|----------------------|--------------------|----------------*|
|
|  H.            +H.                   +H.                  +H.
|-------------|----------------------|--------------------|----------------*|
|-------------|----------------------|--------------------|----------------*|
|-------------|----------------------|--------------------|----------------*|
|-------------|----------------------|--------------------|----------------*|
|--2----------|--(2)-----------------|-(2)----------------|-(2)------------*|
|--0----------|--(0)-----------------|-(0)----------------|-(0)------------*|



**************************************************************************
S = Sixteenth Note
E = Eighth Note
Q = Quarter Note
H = Half Note
W = Whole Note
+ = Tie From Previous
. = Dotted Note
Uncapitalized letters represent notes that are staccato
 
 p   - pull-off
 b   - bend
 r   - bend release (if no number after the r, then release immediately)
 /\  - slide into or out of (from/to "nowhere")
 s   - legato slide
n(n) - tapped harmonic

Misc Legend
-----------
 |  - bar
||  - double bar
||o - repeat start
o|| - repeat end
*|  - double bar (ending)
 :  - bar (freetime)
 $  - Segno
 &  - Coda
Tempo markers - 
**************************************************************************
comments
print report bad tab
28 comments total. Showing first comments. show 1 bad comment
+7 reply
andrewbiles 11,161 wrote on June 10 2002, 12:00 am

Hey u confused me straight away by saying that there are 4 guitarists in metallica!

+3 reply
-Spiders- 187 wrote on February 22 2003, 12:00 am

dude this is from the book...and thanks for submitin it it would be cool if submited the rest of the song,oh and its 4 guitars cuz the record it over and over again u know but realy its only 2 kirk and james.

I want to post or [tab]
guest
You may want to rate the tab now too:
select rating
Please do not post tabs as comments. Select "correction" instead!