Oops, an error
Loading. Please wait.

Nothing Else Matters Bass Tab

version 3
version 3
113,407 views 243 this week
7 commentsread comments
1 2 3 4 5
excellent!
x 49
add to favorites
launch autoscroll
font size
0
reset
guitar tuner
Autoscroll
slow
fast
+/-
esc
set tempo
stop
Help us to improve Ultimate-Guitar.com Take our survey!
×
Band: Metallica
Song: Nothing Else Matters
Album: Metallica (1991)
Bassist: Jason Newsted
Tuning: Standard
Tabbed by: ThrashMetalhead

Note:
I made this tab based on the bass master track of the song, so you can be
completely sure that this tab is 100% correct. 

You can hear the bass master track here:
https://www.youtube.com/watch?v=9sj68q7Reyk


[Verse 1]

G|----------------|
D|----------------| x2
A|----7--5--------|
E|-0--------8/--3-|

G|-----------------------------------|
D|-----------------------------------|
A|----7--5-----------2-----7---------|
E|-0--------8/--3-3-----0-----0---32-|

G|----------------|
D|----------------| x2
A|----7--5--------|
E|-0--------8/--3-|

G|----------------------------------------|
D|----------------------------------------|
A|----7--5-----------2/-----7-------7\----|
E|-0--------8/--3-3------0-----0-0-----32-|

G|----------------|
D|----------------| x2
A|----7--5--------|
E|-0--------8/--3-|

G|------------------------|
D|------------------------|
A|----7--5-----------2----|
E|-0--------8/--3-3-----0-|


[Chorus]

G|-------------------|
D|-------7-7-7-7-7-7-| x2
A|-------5-5-5-5-5-5-|
E|-8--5--------------|

G|-------------------------|
D|-------7-7-7-------------|
A|-------5-5-5-7---7-------|
E|-8--5--------0------0-32-|


[Verse 2]

G|----------------|
D|----------------|
A|----7--5--------|
E|-0--------8/--3-|

G|-----------------|
D|-----------------|
A|----7--5/--10\---|
E|-0-------------3-|

G|---------------------------|
D|---------------------------|
A|----7--5-----------2-----7-|
E|-0--------8/--3-3-----0----|


[Chorus]

G|-------------------|
D|-------7-7-7-7-7-7-| x2
A|-------5-5-5-5-5-5-|
E|-8--5--------------|

G|---------------------------|
D|-------7-7-----------------|
A|-------5-5-5h7-7---7-------|
E|-8--5------0---0------0-32-|


[Interlude]

G|----------------------------------------------------------|
D|-----------------------------------7----------------------|
A|---7-7---7-7---7-7---7\--------------0--------------------|
E|-0-----0-----0-----0----8\-5---55------5/8-8--8-8-8/10-10-|
 |
G|---------------------9----------|
D|-------------------9------------|
A|-----------------7--------7\----|
E|-10-10-10/12-0---------0-----32-|

G|-----------------------------------------------------------------|
D|-----------------------------7-------7-------------------7---5---|
A|---7-7---7-7---7-7---7-------------------------------------5---7-|
E|-0-----0-----0-----0---8\-5-----7-5----578--8-8-8/10-10----------|
 |
G|---------------|
D|---------------|
A|----7-7--------|
E|-0-------0--32-|


[Verse 3]

G|----------------|
D|----------------| x2
A|----7--5--------|
E|-0--------8/--3-|

G|----------------------------------|
D|----------------------------------|
A|----7--5-----------2------7-------|
E|-0--------8/--3-3-----0------0-32-|

G|----------------|
D|----------------| x2
A|----7--5--------|
E|-0--------8/--3-|

G|---------------------------|
D|---------------------------|
A|----7--5-----------2-----7-|
E|-0--------8/--3-3-----0----|


[Chorus]

G|-------------------|
D|-------7-7-7-7-7-7-| x4
A|-------5-5-5-5-5-5-|
E|-8--5--------------|

G|-----------------------------------|
D|-------7-7-------------------------|
A|-------5-5-5h7-7--7-7-777777777777-|
E|-8--5------0---0--0-0-000000000000-|


[Guitar solo]

G|----------------------|
D|----------------------|
A|-7--7-7--7-5--5-3-----|
E|-0--0--------------32-|

G|------------------------|
D|------------------------|
A|-7--7-7--07-5--55-3-----|
E|-0--0----------------32-|

G|--------------------------------|
D|--------------------------------|
A|-7--7-7--7-5--55-3--3----2------|
E|-0--0-----------------3-----0-0-|

**********************************

| / = slide up
| \ = slide down
| h = hammer-on

**********************************
Suggest correction
comments
print report bad tab
7 comments total. Showing first comments.
+6 reply
nilschpilsch 213 wrote on February 28 2010, 02:49 pm

Excellently tabbed. From what I can hear it's better than the other 2!

0 reply
Der Bassist 50 wrote on July 25 2010, 05:02 pm

Sounds great and video is nice too! :)

0 reply
basskiki29 10 wrote on March 4 2013, 01:13 pm

excellent work!

guest
You may want to rate the tab now too:
select rating
Wanna post a correction for this tab? Suggest correction