Oops, an error
Loading. Please wait.

Nothing Else Matters Tab

version 9
12,446 views 51 this week
no commentswrite comment
1 2 3 4 5
accurate
x 6
add to favorites
launch autoscroll
font size
0
reset
how to read this tab
guitar tuner
Tab Pro tools
  • play this tab
  • loop segment
  • change instrument
  • show fretboard
  • metronome
×
Best way to learn
"Nothing Else Matters"
Autoscroll
slow
fast
+/-
esc
set tempo
stop
Contributor
Difficulty
intermediate
                                    metallica
                          nothing else matters ukulele
                                    metallica
   uku 1-CGEA
intro
|----------7-------|----------7-------|----------7-------|----------7-------|
|-0-----7-----7----|-0-----7-----7----|-0-----7-----7----|-0-----7-----7--7-|
|------------------|------------------|------------------|------------------|
|----0-----------0-|----0-----------0-|----0-----------0-|----0-------------|

|-2--------------|------2-3-2^3^2^0--2------|----------2^0------|-----------|
|-7-----7^0-0----|-0-------------------5\-0-|-5-----5-------5---|---5--5--7-|
|----------------|--------------------------|-4--4------------4-|-4----4--6-|
|----0---------0-|----0---------------------|-------------------|-----------|
                                              h  h  h
|-7-7---7---7----7-|-9--9---9---9^0-------|---------12-----|---------7------|
|-8--8---8---8---8-|-10--10--10----10-10--|-0----12----7---|-0----7-----7---|
|-7---7---7---7--7-|-9-----9---9-----9----|----------------|----------------|
|------------------|----------------------|---12---------0-|---0-----------0|

|----------7-------|----------7-------|--------2---------|------------------|
|-0-----7-----7----|-0-----7-----7----|-0----3-----------|-----2------0-----|
|------------------|------------------|----4-------------|---2------0-------|
|----0-----------0-|----0-----------0-|------------------|-2---2--0---0-----|

|--------2-------|--------------------|--------2---------|------------------|
|-0----3---------|-----2------0-------|-0----3-----------|-----2------0-----|
|----4-----------|---2------0---------|----4-------------|---2------0-------|
|----------------|-2---2--0---0-------|------------------|-2---2--0---0-----|

|-----2------2----|----------7--------|----------7-------|----------7-------|
|-----3------2----|-0-----7-----7-----|-0-----7-----7----|-0-----7-----7----|
|---2------3------|-------------------|------------------|------------------|
|-0------4--------|----0-----------0--|----0-----------0-|----0-----------0-|

|----------7-------|
|-0-----7-----7----|
|------------------|
|----0-----------0-|

chords
|--2--|--0--|--3--|--2--|--2--|--0--|-----|-----|-----|-----|-----|
|--3--|--2--|--0--|--3--|--2--|--0--|-----|-----|-----|-----|-----|
|--4--|--2--|--0--|--2--|--3--|--1--|-----|-----|-----|-----|-----|
|--4--|--2--|--0--|--0--|--4--|--2--|-----|-----|-----|-----|-----|
  Em     D     C     G     B     A     

VERSE
Em                 D      C
So close no matter how far
Em                    D          C
Couldn't be much more from the heart
Em               D          C
Forever trusting who we are
G   B            Em
And nothing else matters

Em             D         C
Never opened myself this way
Em                       D      C
Life is ours, we live it our way
Em                      D       C
All these words I don't just say
G   B            Em
And nothing else matters

Em                   D          C
Trust and seek and I find in you
Em               D             C
Every day for us something new
Em              D               C
Open mind for a different view
G   B            Em
And nothing else matters

CHORUS 
C       A
D                         C     A
Never cared for what they do
D                         C     A
Never cared for what they know
D         Em
But I know

VERSE              D     C
So close no matter how far
Em                    D        C
Couldn't be much more from the heart
Em               D      C
Forever trusting who we are
G   B            Em
And nothing else matters

CHORUS
C       A
D                         C     A
Never cared for what they do
D                         C     A
Never cared for what they know
D     Em
But I know

INTERLUDE
Em                   A                          C          D
|-7---9--|-10---12--|-3------3-----|-----3-----|----------|----------------|
|--7---7-|---7----7-|-0-0----0-0---|---0---0---|-0----0---|-0-----0--------|
|--------|----------|-0---0--0---0-|-0-------0-|---0----0-|---2-----2------|
|--------|----------|-0------0-----|-----------|-----0----|-----2----------|
Em
|---2----2----|----------7-------||
|-0-3----3-0--|-0-----7-----7----||
|---4----4----|------------------||
|-------------|----0-----------0-||

VERSE        D           C
Never opened myself this way
Em                       D      C
Life is ours, we live it our way
Em                      D       C
All these words I don't just say
G   B            Em
And nothing else matters

Em                 D       C
Trust I seek and I find in you
Em               D         C
Every day for us something new
Em              D         C
Open mind for a different view
G   B            Em
And nothing else matters

CHORUS
C       A
D                         C     A
Never cared for what they say
D                          C    A
Never cared for games they play
D                         C     A
Never cared for what they do
D                         C     A
Never cared for what they know
D     Em
And I know

VERSE              D      C
So close no matter how far
Em                    D        C
Couldn't be much more from the heart
Em               D      C
Forever trusting who we are
G     B         Em
No nothing else matters
comments
print report bad tab
I want to post or [tab]
guest
You may want to rate the tab now too:
select rating
Please do not post tabs as comments. Select "correction" instead!