Oops, an error
Loading. Please wait.

Now That We Re Dead Chords

13,678 views 570 this week
4 commentsread comments
1 2 3 4 5
x 19
add to favorites
launch autoscroll
font size
0
reset
transpose
0
reset
display chords
guitar tuner
Autoscroll
slow
fast
+/-
esc
set tempo
stop
Help us to improve Ultimate-Guitar.com Take our survey!
×
Author
Difficulty
intermediate
About this tab version
No previus version exists befor i send it. Was this info helpful? Yes No
[Intro]

e|---0-ks-----0-ks----------0---|
B|---0-ks-----0-ks----------0---|
G|---0-ks-----0-ks----------0---|
D|---0-ks-----0-ks----------0---|
A|---0-ks-----0-ks----------0---|
E|---0-ks-----0-ks----------0---|

e|----------------------|
B|----------------------|
G|----------------------|
D|----------------------|x2
A|----------------------|
E|--0--0--0--0--0--0--0-|

e|---------------------------------|------------------------------------------|
B|---------------------------------|------------------------------------------|
G|---------------------------------|------------------------------------------|
D|-----------------5-5-----7-----8-|----------2--------------5-5-----4-----5--|x2
A|-----------------5-5-----7-----8-|----------2--------------5-5-----4-----5--|
E|--0--0--0--0--0--3-3--0--5--0--6-|-0--0--0--0--0--0--0--0--3-3--0--2--0--3--|

Suggest correction
comments
print report bad tab
4 comments total. Showing first comments.
0 reply
thomment18048 10 Nov 18, 2016 02:43 PM

anyone gonna make GOOD tabs of all their latest songs? Learned to play all their studio album songs in less than 1 year, and listening to their stuff and not knowing how to play them drives me to INSANITY!!!!!!!!! SOMEONE HELP!

0 reply
isleychase 10 Nov 18, 2016 10:25 PM

There are a few small errors, but overall great job.

0 reply
Spawn3323 67 Nov 22, 2016 08:39 PM

Good tab so far.

FYI You have submitted it as "Chords".

guest
You may want to rate the tab now too:
select rating
Wanna post a correction for this tab? Suggest correction