Oops, an error
Loading. Please wait.

Now That Were Dead bass

version 1
version 1

Whole song

  • Full bass tab that covers all sections of the song... Show more

Interactive

2,128 views 39 this week
no commentswrite comment
1 2 3 4 5
2 more votes to show rating
add to favorites
×
Save as Personal and add changes to this tab that will be seen only by you. Learn more ›
×
You can save this tab as Personal to edit and correct it or add notes. All changes will be seen only by you. Learn more »
launch autoscroll
font size
0
reset
guitar tuner
backing track
0:00
0:00
edit
Autoscroll
slow
fast
+/-
esc
set tempo
stop
About this tab version
Full bass tab that covers all sections of the song. Rob plays a 5 string bass in this song. Was this info helpful? Yes No
Artist/Title: Metallica - "Now That We're Dead"
Album: Hardwired... To Self Destruct
Tuning: Standard 5 String Bass
tabbed by: jjhand, with help from MNoire's Guitar Pro Tab

Intro is simple: The guitar plays a melody line but bass plays stright E's throughout. 
Guitar notes are shown above to follow along. Enjoy and please rate or comment.


[Intro]
G|--------|-------------------------|-------------------------|-------------------------|
D|--------|-------------------------|-------------------------|-------------------------|
A|--------|-------------------------|-------------------------|-------------------------|
E|--------|-0--0--0--0--0--0--0--0--|-0--0--0--0--0--0--0--0--|-0--0--0--0--0--0--0--0--|
B|--------|-------------------------|-------------------------|-------------------------|


               G        A       Bb                                 G        F#      G  
G|-------------------------|-------------------------|-------------------------|-------------------------|
D|-------------------------|-------------------------|-------------------------|-------------------------|
A|-------------------------|-------------------------|-------------------------|-------------------------|
E|-0--0--0--0--0--0--0--0--|-0--0--0--0--0--0--0--0--|-0--0--0--0--0--0--0--0--|-0--0--0--0--0--0--0--0--|
B|-------------------------|-------------------------|-------------------------|-------------------------|
   play this line 4x        



(0:42) Guitar changes                                        Bb G  A Bb  A
G|-------------------------|-------------------------|-------------------------|-------------------------|
D|-------------------------|-------------------------|-------------------------|-------------------------|
A|-------------------------|-------------------------|-------------------------|-------------------------|
E|-0--0--0--0--0--0--0--0--|-0--0--0--0--0--0--0--0--|-0--0--0--0--0--0--0--0--|-0--0--0--0--0--0--0--0--|
B|-------------------------|-------------------------|-------------------------|-------------------------|

         Bb G  A Bb  A                                       Bb G  A  Bb A
G|-------------------------|-------------------------|-------------------------|-------------------------|
D|-------------------------|-------------------------|-------------------------|-------------------------|
A|-------------------------|-------------------------|-------------------------|-------------------------|
E|-0--0--0--0--0--0--0--0--|-0--0--0--0--0--0--0--0--|-0--0--0--0--0--0--0--0--|-0--0--0--0--0--0--0--0--|
B|-------------------------|-------------------------|-------------------------|-------------------------|

         Bb G  A Bb  A         
G|-------------------------|-------------|-------------|--------------|--------------|
D|-------------------------|-------------|-------------|--------------|--------------|
A|-------------------------|-------------|-------------|--------------|--------------|
E|-0--0--0--0--0--0--0--0--|-rest--------|-rest--------|-rest---------|-rest---------|
B|-------------------------|-------------|-------------|--------------|--------------|



[PreVerse]
  Let strings ring
G|-------------------------|-------------------------|-------------------------|-------------------------|
D|-------------------------|-------------------------|-------------------------|-------------------------|
A|-------------------------|-------------------------|-------------------------|-------------------------|
E|-0--0--0--0--0--0--0--0--|-0--0--0--0--0--0--0--0--|-0--0--0--0--0--0--0--0--|-0--0--0--0--0--0--0--0--|
B|-------------------------|-------------------------|-------------------------|-------------------------|


G|-------------------------|-------------------------|-------------------------|-------------------------|
D|-------------------------|-------------------------|-------------------------|-------------------------|
A|-------------------------|-------------------------|-------------------------|-------------------------|
E|-0--0--0--0--0--0--0--0--|-0--0--0--0--0--0--0--0--|-0--0--0--0--0--0--0--0--|-0--0--0--0--0--0--0--0--|
B|-------------------------|-------------------------|-------------------------|-------------------------|


G|-------------------------|-------------------------|-------------------------|-------------------------|
D|-------------------------|-------------------------|-------------------------|-------------------------|
A|-------------------------|-------------------------|-------------------------|-------------------------|
E|-0--0--0--0--0--0--0--0--|-0--0--0--0--0--0--0--0--|-0--0--0--0--0--0--0--0--|-0--0--0--0--0--0--0--0--|
B|-------------------------|-------------------------|-------------------------|-------------------------|


G|-------------------------|-------------------------|-------------------------|-------------------------|
D|-------------------------|-------------------------|-------------------------|-------------------------|
A|-------------------------|-------------------------|-------------------------|-------------------------|
E|-0--0--0--0--0--0--0--0--|-0--0--0--0--0--0--0--0--|-0--0--0--3-----5-----6--|---6--5--3--5--3--3------|
B|-------------------------|-------------------------|-------------------------|-------------------------|



[Verse]
G|-----------------------|-----------------------|----------------------|------------------------|
D|-----------------------|-----------------------|----------------------|------------------------|
A|-----------------------|-----------------------|----------------------|------------------------|
E|-----------------------|-----------------------|----------------------|------------------------|
B|-5--5--5----5--5--5----|-5--5--5----5--5--5----|--1/5--5----1/5--5----|-5--5--5----5--5--5-----|
                                    "When darkness falls           May it be      That we should" 

G|----------------------|-----------------------|----------------------|------------------------|
D|----------------------|-----------------------|----------------------|------------------------|
A|----------------------|-----------------------|----------------------|------------------------|
E|----------------------|-----------------------|----------------------|------------------------|
B|--1/5--5----1/5--5----|-5--5--5----5--5--5----|--1/5--5----1/5--5----|-5--5--5----5--5--5-----|
"see the light                        When reaper calls            May it be      That we walk"

G|----------------------|-----------------------|----------------------|------------------------|
D|----------------------|-----------------------|----------------------|------------------------|
A|----------------------|-----------------------|----------------------|------------------------|
E|----------------------|-----------------------|----------------------|------------------------|
B|--1/5--5----1/5--5----|-5--5--5----5--5--5----|--1/5--5----1/5--5----|-5--5--5----5--5--5-----|
"straight and right                   When doubt returns           May it be     That faith shall"

G|----------------------|-----------------------|----------------------|------------------------|
D|----------------------|-----------------------|----------------------|------------------------|
A|----------------------|-----------------------|----------------------|------------------------|
E|----------------------|-----------------------|----------------------|------------------------|
B|--1/5--5----1/5--5----|-5--5--5----5--5--5----|--1/5--5----1/5--5----|-5--5--5----5--5--5-----|
 "permeate our scars                  When we’re seduced     then may it be      That we not" 

G|----------------------|-----------------------|
D|----------------------|-----------------------|
A|----------------------|-----------------------|
E|----------------------|-----------------------|
B|--1/5--5----1/5--5----|-5--5--5----5--5--5--5-|
 "deviate our cause"    



[PreChorus] 

   Each set of notes starts on 2nd beat 
G|-------------------------|-----------------------|
D|-------------------------|-----------------------|
A|------7--7------5----10--|------7--7-----5-------|
E|-------------------------|--------------------3--|
B|-------------------------|-----------------------|
       "All sinners,              a future"

G|-------------------------|-----------------------|
D|-------------------------|-----------------------|
A|------7--7------5----10--|------7--7-----5-------|
E|-------------------------|--------------------3--|
B|-------------------------|-----------------------|
       "All saints,               a past"

G|-------------------------|-----------------------|
D|-------------------------|-----------------------|
A|------7--7------5----10--|------7--7-------------|
E|-------------------------|---------------7----8--|
B|-------------------------|-----------------------|
       "Beginning,                the ending"

G|-------------------------|-----------------------|
D|-------------------------|-----------------------|
A|-------------------------|-----------------------|
E|------8--8------5----7---|------7--7-----3----0--|
B|-------------------------|-----------------------|
       "Return                   to ash"


[Chorus]
G|---------------------------|---------------------------|
D|---------------------------|---------------------------|
A|---------------------------|---------------------------|
E|-(0)---3--3--x--x--0--0----|-(0)---3--3--x--x--0--0----|
B|---------------------------|---------------------------|
  "Now that we’re dead, my dear"

G|---------------------------|---------------------------|
D|---------------------------|---------------------------|
A|---------------------------|---------------------------|
E|-(0)---3--3--x--x--0--0----|-(0)---3--3--x--x--0--0----|
B|---------------------------|---------------------------|
  "We    can   be         together"

G|---------------------------|---------------------------|
D|---------------------------|---------------------------|
A|---------------------------|---------------------------|
E|-(0)---3--3--x--x--0--0----|-(0)---3--3--x--x--0--0----|
B|---------------------------|---------------------------|
  "Now that we’re dead, my dear"

G|---------------------------|---------------------------|
D|---------------------------|---------------------------|
A|---------------------------|---------------------------|
E|-(0)---3--3--x--x--0--0----|-(0)---3--3--x--x--0--0----|
B|---------------------------|---------------------------|
  "We    can   live       forever"


[Pre-Verse 2]
G|-------------------------|-------------------------|-------------------------|-------------------------|
D|-------------------------|-------------------------|-------------------------|-------------------------|
A|-------------------------|-------------------------|-------------------------|-------------------------|
E|-0--0--0--0--0--0--0--0--|-0--0--0--0--0--0--0--0--|-0--0--0--0--0--0--0--0--|-0--0--0--0--0--0--0--0--|
B|-------------------------|-------------------------|-------------------------|-------------------------|


G|-------------------------|-------------------------|-------------------------|-------------------------|
D|-------------------------|-------------------------|-------------------------|-------------------------|
A|-------------------------|-------------------------|-------------------------|-------------------------|
E|-0--0--0--0--0--0--0--0--|-0--0--0--0--0--0--0--0--|-0--0--0--3-----5-----6--|---6--5--3--5--3--3------|
B|-------------------------|-------------------------|-------------------------|-------------------------|


[Verse 2] 
G|-----------------------|-----------------------|----------------------|------------------------|
D|-----------------------|-----------------------|----------------------|------------------------|
A|-----------------------|-----------------------|----------------------|------------------------|
E|-----------------------|-----------------------|----------------------|------------------------|
B|-5--5--5----5--5--5----|-5--5--5----5--5--5----|--1/5--5----1/5--5----|-5--5--5----5--5--5-----|
                                    "When all is pain,            may it be   It’s all we’ve" 

G|----------------------|-----------------------|----------------------|------------------------|
D|----------------------|-----------------------|----------------------|------------------------|
A|----------------------|-----------------------|----------------------|------------------------|
E|----------------------|-----------------------|----------------------|------------------------|
B|--1/5--5----1/5--5----|-5--5--5----5--5--5----|--1/5--5----1/5--5----|-5--5--5----5--5--5-----|
"ever known                        When flame consumes,       may it be    It warms our"

G|----------------------|-----------------------|----------------------|------------------------|
D|----------------------|-----------------------|----------------------|------------------------|
A|----------------------|-----------------------|----------------------|------------------------|
E|----------------------|-----------------------|----------------------|------------------------|
B|--1/5--5----1/5--5----|-5--5--5----5--5--5----|--1/5--5----1/5--5----|-5--5--5----5--5--5-----|
"dying bones                       When loss has won,            may it be    It’s you I’m"

G|----------------------|-----------------------|----------------------|------------------------|
D|----------------------|-----------------------|----------------------|------------------------|
A|----------------------|-----------------------|----------------------|------------------------|
E|----------------------|-----------------------|----------------------|------------------------|
B|--1/5--5----1/5--5----|-5--5--5----5--5--5----|--1/5--5----1/5--5----|-5--5--5----5--5--5-----|
 "madly fighting for                 When Kingdom comes,         may it be    We walk right" 

G|----------------------|-----------------------|
D|----------------------|-----------------------|
A|----------------------|-----------------------|
E|----------------------|-----------------------|
B|--1/5--5----1/5--5----|-5--5--5----5--5--5--5-|
 "through that open door"    



[PreChorus 2] 
G|-------------------------|-----------------------|
D|-------------------------|-----------------------|
A|------7--7------5----10--|------7--7-----5-------|
E|-------------------------|--------------------3--|
B|-------------------------|-----------------------|
       "All sinners,              a future"

G|-------------------------|-----------------------|
D|-------------------------|-----------------------|
A|------7--7------5----10--|------7--7-----5-------|
E|-------------------------|--------------------3--|
B|-------------------------|-----------------------|
       "All saints,               a past"

G|-------------------------|-----------------------|
D|-------------------------|-----------------------|
A|------7--7------5----10--|------7--7-------------|
E|-------------------------|---------------7----8--|
B|-------------------------|-----------------------|
       "Beginning,                the ending"

G|-------------------------|-----------------------|
D|-------------------------|-----------------------|
A|-------------------------|-----------------------|
E|------8--8------5----7---|------7--7-----3----0--|
B|-------------------------|-----------------------|
       "Return                   to ash"


[Chorus 2]
G|---------------------------|---------------------------|
D|---------------------------|---------------------------|
A|---------------------------|---------------------------|
E|-(0)---3--3--x--x--0--0----|-(0)---3--3--x--x--0--0----|
B|---------------------------|---------------------------|
  "Now that we’re dead, my dear"

G|---------------------------|---------------------------|
D|---------------------------|---------------------------|
A|---------------------------|---------------------------|
E|-(0)---3--3--x--x--0--0----|-(0)---3--3--x--x--0--0----|
B|---------------------------|---------------------------|
  "We    can   be         together"

G|---------------------------|---------------------------|
D|---------------------------|---------------------------|
A|---------------------------|---------------------------|
E|-(0)---3--3--x--x--0--0----|-(0)---3--3--x--x--0--0----|
B|---------------------------|---------------------------|
  "Now that we’re dead, my dear"

G|---------------------------|---------------------------|
D|---------------------------|---------------------------|
A|---------------------------|---------------------------|
E|-(0)---3--3--x--x--0--0----|-(0)---3--3--x--x--0--0----|
B|---------------------------|---------------------------|
  "We    can   live       forever"


G|-------------------------|-------------------------|-----------------------|------------------------|
D|-------------------------|-------------------------|-----------------------|------------------------|
A|-------------------------|-------------------------|-----------------------|------------------------|
E|-0--0--0--0--0--0--0--0--|-0--0--0--0--0--0--0--0--|-0--0--0--3----5----6--|---6--5--3--5--3--3-----|
B|-------------------------|-------------------------|-----------------------|------------------------|


[Bridge 1]

G|--------|----------------------|---------------------|--------------------------|
D|--------|----------------------|---------------------|--------------------------|
A|--------|----------------------|---------------------|-7---7----7---7----7---7--|
E|-rest---|-0----2--3------2--0--|-----5--3------2--0--|---7--------7--------7----|
B|--------|----------------------|---------------------|--------------------------|

                          2 beats (2/4)    4/4 again
G|----------------------|----------------|---------------------|--------------------------|
D|----------------------|----------------|---------------------|--------------------------|
A|----------------------|----------------|---------------------|-7---7----7---7----7---7--|
E|-0----2--3------2--0--|-0-0---0--0--0--|-0----2--3-----2--0--|---7--------7--------7----|


G|---------------------|-------------------------------------------------------------|
D|---------------------|-------------7h8-8-8-8-8-12h13-13-13-13-13-15h17-17-17-17-17-|
A|---------------------|-3h5-5-5-5-5-------------------------------------------------|
E|-0----2--3-----2--0--|-------------------------------------------------------------|
B|---------------------|-------------------------------------------------------------|

G|-17----------------------|-----------------------|
D|-------------------------|-----------------------|
A|-------------------------|-----------------------|
E|-------------------------|-rest------------------|
B|-------------------------|-----------------------|


[Guitar Solo]
G|-------------------------|-------------------------|-------------------------|-------------------------|
D|-------------------------|-------------------------|-------------------------|-------------------------|
A|-------------------------|-------------------------|-------------------------|-------------------------|
E|-0--0--0--0--0--0--0--0--|-0--0--0--0--0--0--0--0--|-0--0--0--0--0--0--0--0--|-0--0--0--0--0--0--0--0--|
B|-------------------------|-------------------------|-------------------------|-------------------------|


G|-------------------------|-------------------------|-------------------------|---------------------|
D|-------------------------|-------------------------|-------------------------|---------------------|
A|-------------------------|-------------------------|-------------------------|---------------------|
E|-0--0--0--0--0--0--0--0--|-0--0--0--0--0--0--0--0--|-0--0--0--3-----5-----6--|---6--5--3--5--3-----|
B|-------------------------|-------------------------|-------------------------|---------------------|


G|-----------------------------|--------------------------|-----------------------------|
D|-----------------------------|--------------------------|-----------------------------|
A|------7--7------5h7----10----|------7--7----5h7---------|------7--7------5h7----10----|
E|-0---------------------------|-0-------------------3----|-0---------------------------|
B|-----------------------------|--------------------------|-----------------------------|


G|-----------------------------|--------------------------|-----------------------------|
D|-----------------------------|--------------------------|-----------------------------|
A|------7--7------5h7----------|------7--7----5h7----10---|------7--7-------------------|
E|-0---------------------3-----|-0------------------------|-0----------------7----8-----|
B|-----------------------------|--------------------------|-----------------------------|

                                                            6/4
G|-----------------------------|--------------------------|-----------------------------|
D|-----------------------------|--------------------------|-----------------------------|
A|-----------------------------|--------------------------|-----------------------------|
E|-(8)------------5------7-----|-(7)----------------------|-----------------------------|
B|-----------------------------|----------------8----5----|-(5)-------------------------|


Rest during guitar riff build-up until (5:54)


[Last Prechorus]
   Each set of notes starts on 2nd beat 
G|-------------------------|-----------------------|
D|-------------------------|-----------------------|
A|------7--7------5----10--|------7--7-----5-------|
E|-------------------------|--------------------3--|
B|-------------------------|-----------------------|
       "All sinners,              a future"

G|-------------------------|-----------------------|
D|-------------------------|-----------------------|
A|------7--7------5----10--|------7--7-----5-------|
E|-------------------------|--------------------3--|
B|-------------------------|-----------------------|
       "All saints,               a past"

G|-------------------------|-----------------------|
D|-------------------------|-----------------------|
A|------7--7------5----10--|------7--7-------------|
E|-------------------------|---------------7----8--|
B|-------------------------|-----------------------|
       "Beginning,                the ending"

G|-------------------------|-----------------------|
D|-------------------------|-----------------------|
A|-------------------------|-----------------------|
E|------8--8------5----7---|------7--7-----3----0--|
B|-------------------------|-----------------------|
       "Return                   to ash"


[Final Chorus]
G|---------------------------|---------------------------|
D|---------------------------|---------------------------|
A|---------------------------|---------------------------|
E|-(0)---3--3--x--x--0--0----|-(0)---3--3--x--x--0--0----|
B|---------------------------|---------------------------|
  "Now that we’re dead, my dear"

G|---------------------------|---------------------------|
D|---------------------------|---------------------------|
A|---------------------------|---------------------------|
E|-(0)---3--3--x--x--0--0----|-(0)---3--3--x--x--0--0----|
B|---------------------------|---------------------------|
  "We    can   be         together"

G|---------------------------|---------------------------|
D|---------------------------|---------------------------|
A|---------------------------|---------------------------|
E|-(0)---3--3--x--x--0--0----|-(0)---3--3--x--x--0--0----|
B|---------------------------|---------------------------|
  "Now that we’re dead, my dear"

G|---------------------------|---------------------------|
D|---------------------------|---------------------------|
A|---------------------------|---------------------------|
E|-(0)---3--3--x--x--0--0----|-(0)---3--3--x--x--0--0----|
B|---------------------------|---------------------------|
  "We    can   live       forever"

G|-------------------------|-------------------------|-------------------------|---------------------|
D|-------------------------|-------------------------|-------------------------|---------------------|
A|-------------------------|-------------------------|-------------------------|---------------------|
E|-0--0--0--0--0--0--0--0--|-0--0--0--0--0--0--0--0--|-0--0--0--3-----5-----6--|---6--5--3--5--3-----|
B|-------------------------|-------------------------|-------------------------|---------------------|



[Ending]
                                                                6/4      * hold 4 beats
G|-------------------|-------------------|--------------------|---------------------------|
D|-------------------|-------------------|--------------------|---------------------------|
A|-------------------|-------------------|-0---------3--------|-2--------5----------------|
E|-3--------6--------|-3--------6--------|--------------------|---------------------------|
B|-------------------|-------------------|--------------------|----------3----------------|
  "Return to ashes, shed this skin         Beyond the black, we rise again"

G|----------------------|
D|----------------------|
A|----------------------|
E|---rest---------------|
B|----------------------|
  "We shall live forever"


G|-----------------------|----------------------|-----------------------|--------------------|
D|-----------------------|----------------------|-----------------------|--------------------|
A|-------7--7----5----7--|----------------------|-----------------------|--------------------|
E|-0--0------------------|----6--3--5--6--5-----|-x--x--0--3----5----6--|---6--5--3--5--3----|
B|-----------------------|----------------------|-----------------------|--------------------|


G|--------------|----------------------|---------------------|--------------------------|
D|--------------|----------------------|---------------------|--------------------------|
A|--------------|----------------------|---------------------|-7---7----7---7----7---7--|
E|-rest---------|-0----2--3------2--0--|-----5--3------2--0--|---7--------7--------7----|
B|--------------|----------------------|---------------------|--------------------------|


G|----------------------|---------------------------------|-----------|
D|----------------------|---------------------------------|-----------|
A|----------------------|---------------------------------|-----------|
E|-0----2--3------2--0--|-x-x---x-x-x---x-x-x---x-x-x---x-|-x---------|
B|----------------------|---------------------------------|-----------|



***********************
Key:
| /  slide up
| \  slide down
| h  hammer-on
| p  pull-off
| x  muted note
***********************


            
            
Suggest correction
Creating personal tab
Creating personal tab
You can edit any tab online and save it as your Personal.

You can edit, replace or remove any tab part or add personal notes – all changes will be seen only by you.

Personal tabs can be accessed anytime from any device, even offline.
Learn more »
Give kudos to tab author, rate the tab!
1 2 3 4 5
comments
print report bad tab
guest
You may want to rate the tab now too:
select rating
Wanna post a correction for this tab? Suggest correction